  0
SECTION
  2
HEADER
  9
$ACADVER
  1
AC1024
  9
$ACADMAINTVER
 70
     6
  9
$DWGCODEPAGE
  3
ANSI_1250
  9
$INSBASE
 10
0.0
 20
0.0
 30
0.0
  9
$EXTMIN
 10
1.000000000000000E+20
 20
1.000000000000000E+20
 30
1.000000000000000E+20
  9
$EXTMAX
 10
-1.000000000000000E+20
 20
-1.000000000000000E+20
 30
-1.000000000000000E+20
  9
$LIMMIN
 10
0.0
 20
0.0
  9
$LIMMAX
 10
12.0
 20
9.0
  9
$ORTHOMODE
 70
     0
  9
$REGENMODE
 70
     1
  9
$FILLMODE
 70
     1
  9
$QTEXTMODE
 70
     0
  9
$MIRRTEXT
 70
     1
  9
$LTSCALE
 40
1.0
  9
$ATTMODE
 70
     1
  9
$TEXTSIZE
 40
0.2
  9
$TRACEWID
 40
0.05
  9
$TEXTSTYLE
  7
Standard
  9
$CLAYER
  8
0
  9
$CELTYPE
  6
ByLayer
  9
$CECOLOR
 62
   256
  9
$CELTSCALE
 40
1.0
  9
$DISPSILH
 70
     0
  9
$DIMSCALE
 40
1.0
  9
$DIMASZ
 40
0.18
  9
$DIMEXO
 40
0.0625
  9
$DIMDLI
 40
0.38
  9
$DIMRND
 40
0.0
  9
$DIMDLE
 40
0.0
  9
$DIMEXE
 40
0.18
  9
$DIMTP
 40
0.0
  9
$DIMTM
 40
0.0
  9
$DIMTXT
 40
0.18
  9
$DIMCEN
 40
0.09
  9
$DIMTSZ
 40
0.0
  9
$DIMTOL
 70
     0
  9
$DIMLIM
 70
     0
  9
$DIMTIH
 70
     1
  9
$DIMTOH
 70
     1
  9
$DIMSE1
 70
     0
  9
$DIMSE2
 70
     0
  9
$DIMTAD
 70
     0
  9
$DIMZIN
 70
     0
  9
$DIMBLK
  1

  9
$DIMASO
 70
     1
  9
$DIMSHO
 70
     1
  9
$DIMPOST
  1

  9
$DIMAPOST
  1

  9
$DIMALT
 70
     0
  9
$DIMALTD
 70
     2
  9
$DIMALTF
 40
25.4
  9
$DIMLFAC
 40
1.0
  9
$DIMTOFL
 70
     0
  9
$DIMTVP
 40
0.0
  9
$DIMTIX
 70
     0
  9
$DIMSOXD
 70
     0
  9
$DIMSAH
 70
     0
  9
$DIMBLK1
  1

  9
$DIMBLK2
  1

  9
$DIMSTYLE
  2
Standard
  9
$DIMCLRD
 70
     0
  9
$DIMCLRE
 70
     0
  9
$DIMCLRT
 70
     0
  9
$DIMTFAC
 40
1.0
  9
$DIMGAP
 40
0.09
  9
$DIMJUST
 70
     0
  9
$DIMSD1
 70
     0
  9
$DIMSD2
 70
     0
  9
$DIMTOLJ
 70
     1
  9
$DIMTZIN
 70
     0
  9
$DIMALTZ
 70
     0
  9
$DIMALTTZ
 70
     0
  9
$DIMUPT
 70
     0
  9
$DIMDEC
 70
     4
  9
$DIMTDEC
 70
     4
  9
$DIMALTU
 70
     2
  9
$DIMALTTD
 70
     2
  9
$DIMTXSTY
  7
Standard
  9
$DIMAUNIT
 70
     0
  9
$DIMADEC
 70
     0
  9
$DIMALTRND
 40
0.0
  9
$DIMAZIN
 70
     0
  9
$DIMDSEP
 70
    46
  9
$DIMATFIT
 70
     3
  9
$DIMFRAC
 70
     0
  9
$DIMLDRBLK
  1

  9
$DIMLUNIT
 70
     2
  9
$DIMLWD
 70
    -2
  9
$DIMLWE
 70
    -2
  9
$DIMTMOVE
 70
     0
  9
$DIMFXL
 40
1.0
  9
$DIMFXLON
 70
     0
  9
$DIMJOGANG
 40
0.7853981633974483
  9
$DIMTFILL
 70
     0
  9
$DIMTFILLCLR
 70
     0
  9
$DIMARCSYM
 70
     0
  9
$DIMLTYPE
  6

  9
$DIMLTEX1
  6

  9
$DIMLTEX2
  6

  9
$DIMTXTDIRECTION
 70
     0
  9
$LUNITS
 70
     2
  9
$LUPREC
 70
     4
  9
$SKETCHINC
 40
0.1
  9
$FILLETRAD
 40
0.5
  9
$AUNITS
 70
     0
  9
$AUPREC
 70
     0
  9
$MENU
  1
.
  9
$ELEVATION
 40
0.0
  9
$PELEVATION
 40
0.0
  9
$THICKNESS
 40
0.0
  9
$LIMCHECK
 70
     0
  9
$CHAMFERA
 40
0.5
  9
$CHAMFERB
 40
0.5
  9
$CHAMFERC
 40
1.0
  9
$CHAMFERD
 40
0.0
  9
$SKPOLY
 70
     0
  9
$TDCREATE
 40
2459381.789944954
  9
$TDUCREATE
 40
2459381.70661162
  9
$TDUPDATE
 40
2459381.789945798
  9
$TDUUPDATE
 40
2459381.706612465
  9
$TDINDWG
 40
0.0000000116
  9
$TDUSRTIMER
 40
0.0000000116
  9
$USRTIMER
 70
     1
  9
$ANGBASE
 50
0.0
  9
$ANGDIR
 70
     0
  9
$PDMODE
 70
     0
  9
$PDSIZE
 40
0.0
  9
$PLINEWID
 40
0.0
  9
$SPLFRAME
 70
     0
  9
$SPLINETYPE
 70
     6
  9
$SPLINESEGS
 70
     8
  9
$HANDSEED
  5
332
  9
$SURFTAB1
 70
     6
  9
$SURFTAB2
 70
     6
  9
$SURFTYPE
 70
     6
  9
$SURFU
 70
     6
  9
$SURFV
 70
     6
  9
$UCSBASE
  2

  9
$UCSNAME
  2

  9
$UCSORG
 10
0.0
 20
0.0
 30
0.0
  9
$UCSXDIR
 10
1.0
 20
0.0
 30
0.0
  9
$UCSYDIR
 10
0.0
 20
1.0
 30
0.0
  9
$UCSORTHOREF
  2

  9
$UCSORTHOVIEW
 70
     0
  9
$UCSORGTOP
 10
0.0
 20
0.0
 30
0.0
  9
$UCSORGBOTTOM
 10
0.0
 20
0.0
 30
0.0
  9
$UCSORGLEFT
 10
0.0
 20
0.0
 30
0.0
  9
$UCSORGRIGHT
 10
0.0
 20
0.0
 30
0.0
  9
$UCSORGFRONT
 10
0.0
 20
0.0
 30
0.0
  9
$UCSORGBACK
 10
0.0
 20
0.0
 30
0.0
  9
$PUCSBASE
  2

  9
$PUCSNAME
  2

  9
$PUCSORG
 10
0.0
 20
0.0
 30
0.0
  9
$PUCSXDIR
 10
1.0
 20
0.0
 30
0.0
  9
$PUCSYDIR
 10
0.0
 20
1.0
 30
0.0
  9
$PUCSORTHOREF
  2

  9
$PUCSORTHOVIEW
 70
     0
  9
$PUCSORGTOP
 10
0.0
 20
0.0
 30
0.0
  9
$PUCSORGBOTTOM
 10
0.0
 20
0.0
 30
0.0
  9
$PUCSORGLEFT
 10
0.0
 20
0.0
 30
0.0
  9
$PUCSORGRIGHT
 10
0.0
 20
0.0
 30
0.0
  9
$PUCSORGFRONT
 10
0.0
 20
0.0
 30
0.0
  9
$PUCSORGBACK
 10
0.0
 20
0.0
 30
0.0
  9
$USERI1
 70
     0
  9
$USERI2
 70
     0
  9
$USERI3
 70
     0
  9
$USERI4
 70
     0
  9
$USERI5
 70
     0
  9
$USERR1
 40
0.0
  9
$USERR2
 40
0.0
  9
$USERR3
 40
0.0
  9
$USERR4
 40
0.0
  9
$USERR5
 40
0.0
  9
$WORLDVIEW
 70
     1
  9
$SHADEDGE
 70
     3
  9
$SHADEDIF
 70
    70
  9
$TILEMODE
 70
     1
  9
$MAXACTVP
 70
    64
  9
$PINSBASE
 10
0.0
 20
0.0
 30
0.0
  9
$PLIMCHECK
 70
     0
  9
$PEXTMIN
 10
1.000000000000000E+20
 20
1.000000000000000E+20
 30
1.000000000000000E+20
  9
$PEXTMAX
 10
-1.000000000000000E+20
 20
-1.000000000000000E+20
 30
-1.000000000000000E+20
  9
$PLIMMIN
 10
0.0
 20
0.0
  9
$PLIMMAX
 10
12.0
 20
9.0
  9
$UNITMODE
 70
     0
  9
$VISRETAIN
 70
     1
  9
$PLINEGEN
 70
     0
  9
$PSLTSCALE
 70
     1
  9
$TREEDEPTH
 70
  3020
  9
$CMLSTYLE
  2
Standard
  9
$CMLJUST
 70
     0
  9
$CMLSCALE
 40
1.0
  9
$PROXYGRAPHICS
 70
     1
  9
$MEASUREMENT
 70
     0
  9
$CELWEIGHT
370
    -1
  9
$ENDCAPS
280
     0
  9
$JOINSTYLE
280
     0
  9
$LWDISPLAY
290
     1
  9
$INSUNITS
 70
     1
  9
$HYPERLINKBASE
  1

  9
$STYLESHEET
  1

  9
$XEDIT
290
     1
  9
$CEPSNTYPE
380
     0
  9
$PSTYLEMODE
290
     1
  9
$FINGERPRINTGUID
  2
{19A9D96A-4AAF-48BD-8A25-46112E09FCAF}
  9
$VERSIONGUID
  2
{FAEB1C32-E019-11D5-929B-00C0DF256EC4}
  9
$EXTNAMES
290
     1
  9
$PSVPSCALE
 40
0.0
  9
$OLESTARTUP
290
     0
  9
$SORTENTS
280
   127
  9
$INDEXCTL
280
     0
  9
$HIDETEXT
280
     1
  9
$XCLIPFRAME
280
     2
  9
$HALOGAP
280
     0
  9
$OBSCOLOR
 70
   257
  9
$OBSLTYPE
280
     0
  9
$INTERSECTIONDISPLAY
280
     0
  9
$INTERSECTIONCOLOR
 70
   257
  9
$DIMASSOC
280
     2
  9
$PROJECTNAME
  1

  9
$CAMERADISPLAY
290
     0
  9
$LENSLENGTH
 40
50.0
  9
$CAMERAHEIGHT
 40
0.0
  9
$STEPSPERSEC
 40
2.0
  9
$STEPSIZE
 40
6.0
  9
$3DDWFPREC
 40
2.0
  9
$PSOLWIDTH
 40
0.25
  9
$PSOLHEIGHT
 40
4.0
  9
$LOFTANG1
 40
1.570796326794897
  9
$LOFTANG2
 40
1.570796326794897
  9
$LOFTMAG1
 40
0.0
  9
$LOFTMAG2
 40
0.0
  9
$LOFTPARAM
 70
     7
  9
$LOFTNORMALS
280
     1
  9
$LATITUDE
 40
37.795
  9
$LONGITUDE
 40
-122.394
  9
$NORTHDIRECTION
 40
0.0
  9
$TIMEZONE
 70
 -8000
  9
$LIGHTGLYPHDISPLAY
280
     1
  9
$TILEMODELIGHTSYNCH
280
     1
  9
$CMATERIAL
347
3C
  9
$SOLIDHIST
280
     1
  9
$SHOWHIST
280
     1
  9
$DWFFRAME
280
     2
  9
$DGNFRAME
280
     2
  9
$REALWORLDSCALE
290
     1
  9
$INTERFERECOLOR
 62
   256
  9
$CSHADOW
280
     0
  9
$SHADOWPLANELOCATION
 40
0.0
  0
ENDSEC
  0
SECTION
  2
CLASSES
  0
CLASS
  1
ACDBDICTIONARYWDFLT
  2
AcDbDictionaryWithDefault
  3
ObjectDBX Classes
 90
        0
 91
        4
280
     0
281
     0
  0
CLASS
  1
VISUALSTYLE
  2
AcDbVisualStyle
  3
ObjectDBX Classes
 90
     4095
 91
        4
280
     0
281
     0
  0
CLASS
  1
MATERIAL
  2
AcDbMaterial
  3
ObjectDBX Classes
 90
     1153
 91
        4
280
     0
281
     0
  0
CLASS
  1
SUN
  2
AcDbSun
  3
SCENEOE
 90
     1024
 91
        4
280
     0
281
     0
  0
ENDSEC
  0
SECTION
  2
TABLES
  0
TABLE
  2
VPORT
  5
8
330
0
100
AcDbSymbolTable
 70
     1
  0
VPORT
  5
29
330
8
100
AcDbSymbolTableRecord
100
AcDbViewportTableRecord
  2
*Active
 70
     0
 10
0.0
 20
0.0
 11
1.0
 21
1.0
 12
0.0
 22
0.0
 13
0.0
 23
0.0
 14
0.5
 24
0.5
 15
0.5
 25
0.5
 16
0.0
 26
0.0
 36
1.0
 17
104.9999999737534
 27
-148.4999999628701
 37
0.0
 40
296.9999999257402
 41
0.7070707070707533
 42
50.0
 43
0.0
 44
0.0
 50
0.0
 51
0.0
 71
     0
 72
   100
 73
     1
 74
     3
 75
     0
 76
     0
 77
     0
 78
     0
281
     0
 65
     1
110
0.0
120
0.0
130
0.0
111
1.0
121
0.0
131
0.0
112
0.0
122
1.0
132
0.0
 79
     0
146
0.0
 60
     3
 61
     5
292
     1
282
     1
141
0.0
142
0.0
 63
   250
361
3F
  0
ENDTAB
  0
TABLE
  2
LTYPE
  5
5
330
0
100
AcDbSymbolTable
 70
     1
  0
LTYPE
  5
14
330
5
100
AcDbSymbolTableRecord
100
AcDbLinetypeTableRecord
  2
ByBlock
 70
     0
  3

 72
    65
 73
     0
 40
0.0
  0
LTYPE
  5
15
330
5
100
AcDbSymbolTableRecord
100
AcDbLinetypeTableRecord
  2
ByLayer
 70
     0
  3

 72
    65
 73
     0
 40
0.0
  0
LTYPE
  5
16
330
5
100
AcDbSymbolTableRecord
100
AcDbLinetypeTableRecord
  2
Continuous
 70
     0
  3
Solid line
 72
    65
 73
     0
 40
0.0
  0
ENDTAB
  0
TABLE
  2
LAYER
  5
2
330
0
100
AcDbSymbolTable
 70
     2
  0
LAYER
  5
10
330
2
100
AcDbSymbolTableRecord
100
AcDbLayerTableRecord
  2
0
 70
     0
 62
     7
  6
Continuous
370
    -3
390
F
347
3E
  0
LAYER
  5
40
330
2
100
AcDbSymbolTableRecord
100
AcDbLayerTableRecord
  2
Layer 1
 70
     0
 62
     7
  6
Continuous
370
    -3
390
F
347
3E
  0
ENDTAB
  0
TABLE
  2
STYLE
  5
3
330
0
100
AcDbSymbolTable
 70
     1
  0
STYLE
  5
11
330
3
100
AcDbSymbolTableRecord
100
AcDbTextStyleTableRecord
  2
Standard
 70
     0
 40
0.0
 41
1.0
 50
0.0
 71
     0
 42
0.2
  3
txt
  4

  0
ENDTAB
  0
TABLE
  2
VIEW
  5
6
330
0
100
AcDbSymbolTable
 70
     0
  0
ENDTAB
  0
TABLE
  2
UCS
  5
7
330
0
100
AcDbSymbolTable
 70
     0
  0
ENDTAB
  0
TABLE
  2
APPID
  5
9
330
0
100
AcDbSymbolTable
 70
     1
  0
APPID
  5
12
330
9
100
AcDbSymbolTableRecord
100
AcDbRegAppTableRecord
  2
ACAD
 70
     0
  0
ENDTAB
  0
TABLE
  2
DIMSTYLE
  5
A
330
0
100
AcDbSymbolTable
 70
     1
100
AcDbDimStyleTable
  0
DIMSTYLE
105
27
330
A
100
AcDbSymbolTableRecord
100
AcDbDimStyleTableRecord
  2
Standard
 70
     0
178
     0
340
11
  0
ENDTAB
  0
TABLE
  2
BLOCK_RECORD
  5
1
330
0
100
AcDbSymbolTable
 70
    13
  0
BLOCK_RECORD
  5
1F
330
1
100
AcDbSymbolTableRecord
100
AcDbBlockTableRecord
  2
*Model_Space
340
22
 70
     0
280
     1
281
     0
  0
BLOCK_RECORD
  5
1B
330
1
100
AcDbSymbolTableRecord
100
AcDbBlockTableRecord
  2
*Paper_Space
340
1E
 70
     0
280
     1
281
     0
  0
BLOCK_RECORD
  5
23
330
1
100
AcDbSymbolTableRecord
100
AcDbBlockTableRecord
  2
*Paper_Space0
340
26
 70
     0
280
     1
281
     0
  0
BLOCK_RECORD
  5
41
330
1
100
AcDbSymbolTableRecord
100
AcDbBlockTableRecord
  2
block 2
340
0
102
{BLKREFS
331
42
102
}
 70
     0
280
     1
281
     0
  0
BLOCK_RECORD
  5
45
330
1
100
AcDbSymbolTableRecord
100
AcDbBlockTableRecord
  2
block 3
340
0
102
{BLKREFS
331
46
102
}
 70
     0
280
     1
281
     0
  0
BLOCK_RECORD
  5
49
330
1
100
AcDbSymbolTableRecord
100
AcDbBlockTableRecord
  2
block 4
340
0
102
{BLKREFS
331
4A
102
}
 70
     0
280
     1
281
     0
  0
BLOCK_RECORD
  5
4D
330
1
100
AcDbSymbolTableRecord
100
AcDbBlockTableRecord
  2
block 5
340
0
102
{BLKREFS
331
4E
102
}
 70
     0
280
     1
281
     0
  0
BLOCK_RECORD
  5
60
330
1
100
AcDbSymbolTableRecord
100
AcDbBlockTableRecord
  2
block 6
340
0
102
{BLKREFS
331
61
102
}
 70
     0
280
     1
281
     0
  0
BLOCK_RECORD
  5
81
330
1
100
AcDbSymbolTableRecord
100
AcDbBlockTableRecord
  2
block 7
340
0
102
{BLKREFS
331
82
102
}
 70
     0
280
     1
281
     0
  0
BLOCK_RECORD
  5
A2
330
1
100
AcDbSymbolTableRecord
100
AcDbBlockTableRecord
  2
block 8
340
0
102
{BLKREFS
331
A3
102
}
 70
     0
280
     1
281
     0
  0
BLOCK_RECORD
  5
C3
330
1
100
AcDbSymbolTableRecord
100
AcDbBlockTableRecord
  2
block 9
340
0
102
{BLKREFS
331
C4
102
}
 70
     0
280
     1
281
     0
  0
BLOCK_RECORD
  5
E0
330
1
100
AcDbSymbolTableRecord
100
AcDbBlockTableRecord
  2
block 10
340
0
102
{BLKREFS
331
E1
102
}
 70
     0
280
     1
281
     0
  0
BLOCK_RECORD
  5
F9
330
1
100
AcDbSymbolTableRecord
100
AcDbBlockTableRecord
  2
block 11
340
0
102
{BLKREFS
331
FA
102
}
 70
     0
280
     1
281
     0
  0
BLOCK_RECORD
  5
112
330
1
100
AcDbSymbolTableRecord
100
AcDbBlockTableRecord
  2
block 12
340
0
102
{BLKREFS
331
113
102
}
 70
     0
280
     1
281
     0
  0
BLOCK_RECORD
  5
12B
330
1
100
AcDbSymbolTableRecord
100
AcDbBlockTableRecord
  2
block 13
340
0
102
{BLKREFS
331
12C
102
}
 70
     0
280
     1
281
     0
  0
ENDTAB
  0
ENDSEC
  0
SECTION
  2
BLOCKS
  0
BLOCK
  5
20
330
1F
100
AcDbEntity
  8
0
100
AcDbBlockBegin
  2
*Model_Space
 70
     0
 10
0.0
 20
0.0
 30
0.0
  3
*Model_Space
  1

  0
ENDBLK
  5
21
330
1F
100
AcDbEntity
  8
0
100
AcDbBlockEnd
  0
BLOCK
  5
1C
330
1B
100
AcDbEntity
 67
     1
  8
0
100
AcDbBlockBegin
  2
*Paper_Space
 70
     0
 10
0.0
 20
0.0
 30
0.0
  3
*Paper_Space
  1

  0
ENDBLK
  5
1D
330
1B
100
AcDbEntity
 67
     1
  8
0
100
AcDbBlockEnd
  0
BLOCK
  5
24
330
23
100
AcDbEntity
  8
0
100
AcDbBlockBegin
  2
*Paper_Space0
 70
     0
 10
0.0
 20
0.0
 30
0.0
  3
*Paper_Space0
  1

  0
ENDBLK
  5
25
330
23
100
AcDbEntity
  8
0
100
AcDbBlockEnd
  0
BLOCK
  5
43
330
41
100
AcDbEntity
  8
0
100
AcDbBlockBegin
  2
block 2
 70
     0
 10
0.0
 20
0.0
 30
0.0
  3
block 2
  1

  0
INSERT
  5
46
330
41
100
AcDbEntity
  8
Layer 1
100
AcDbBlockReference
  2
block 3
 10
0.0
 20
0.0
 30
0.0
  0
POLYLINE
  5
52
330
41
100
AcDbEntity
  8
Layer 1
 62
   142
420
    35279
370
    35
100
AcDb2dPolyline
 66
     1
 10
0.0
 20
0.0
 30
0.0
  0
VERTEX
  5
53
330
52
100
AcDbEntity
  8
Layer 1
 62
   142
420
    35279
370
    35
100
AcDbVertex
100
AcDb2dVertex
 10
156.1153625169777
 20
-233.4163600121679
 30
0.0
  0
VERTEX
  5
54
330
52
100
AcDbEntity
  8
Layer 1
 62
   142
420
    35279
370
    35
100
AcDbVertex
100
AcDb2dVertex
 10
203.2251617698062
 20
-233.4163600121679
 30
0.0
  0
SEQEND
  5
55
330
52
100
AcDbEntity
  8
Layer 1
 62
   142
420
    35279
370
    35
  0
POLYLINE
  5
56
330
41
100
AcDbEntity
  8
Layer 1
 62
   142
420
    35279
370
    35
100
AcDb2dPolyline
 66
     1
 10
0.0
 20
0.0
 30
0.0
  0
VERTEX
  5
57
330
56
100
AcDbEntity
  8
Layer 1
 62
   142
420
    35279
370
    35
100
AcDbVertex
100
AcDb2dVertex
 10
202.7301094279694
 20
-151.0301545959196
 30
0.0
  0
VERTEX
  5
58
330
56
100
AcDbEntity
  8
Layer 1
 62
   142
420
    35279
370
    35
100
AcDbVertex
100
AcDb2dVertex
 10
202.7301094279694
 20
-231.6765097056158
 30
0.0
  0
SEQEND
  5
59
330
56
100
AcDbEntity
  8
Layer 1
 62
   142
420
    35279
370
    35
  0
SPLINE
  5
5A
330
41
100
AcDbEntity
  8
Layer 1
 62
   142
420
    35279
370
    35
100
AcDbSpline
210
0.0
220
0.0
230
1.0
 70
     8
 71
     3
 72
     8
 73
     4
 74
     0
 42
0.0000000001
 43
0.0000000001
 12
1.0
 22
0.0
 32
0.0
 13
1.0
 23
0.0
 33
0.0
 40
0.0
 40
0.0
 40
0.0
 40
0.0
 40
1.0
 40
1.0
 40
1.0
 40
1.0
 10
202.2560092126466
 20
-231.2415402639304
 30
0.0
 10
202.5118283615571
 20
-231.9411710363579
 30
0.0
 10
202.6716741393381
 20
-232.6743307032516
 30
0.0
 10
202.7301094279694
 20
-233.4163600121679
 30
0.0
  0
SPLINE
  5
5B
330
41
100
AcDbEntity
  8
Layer 1
 62
   142
420
    35279
370
    35
100
AcDbSpline
210
0.0
220
0.0
230
1.0
 70
     8
 71
     3
 72
     8
 73
     4
 74
     0
 42
0.0000000001
 43
0.0000000001
 12
1.0
 22
0.0
 32
0.0
 13
1.0
 23
0.0
 33
0.0
 40
0.0
 40
0.0
 40
0.0
 40
0.0
 40
1.0
 40
1.0
 40
1.0
 40
1.0
 10
203.2047863073237
 20
-231.2415402639304
 30
0.0
 10
202.9489396982208
 20
-231.9411710363579
 30
0.0
 10
202.7885721767911
 20
-232.6743307032516
 30
0.0
 10
202.7301094279694
 20
-233.4163600121679
 30
0.0
  0
POLYLINE
  5
5C
330
41
100
AcDbEntity
  8
Layer 1
 62
   142
420
    35279
370
    35
100
AcDb2dPolyline
 66
     1
 10
0.0
 20
0.0
 30
0.0
  0
VERTEX
  5
5D
330
5C
100
AcDbEntity
  8
Layer 1
 62
   142
420
    35279
370
    35
100
AcDbVertex
100
AcDb2dVertex
 10
203.2047863073237
 20
-231.2415402639304
 30
0.0
  0
VERTEX
  5
5E
330
5C
100
AcDbEntity
  8
Layer 1
 62
   142
420
    35279
370
    35
100
AcDbVertex
100
AcDb2dVertex
 10
202.2560092126466
 20
-231.2415402639304
 30
0.0
  0
SEQEND
  5
5F
330
5C
100
AcDbEntity
  8
Layer 1
 62
   142
420
    35279
370
    35
  0
INSERT
  5
61
330
41
100
AcDbEntity
  8
Layer 1
100
AcDbBlockReference
  2
block 6
 10
0.0
 20
0.0
 30
0.0
  0
POLYLINE
  5
65
330
41
100
AcDbEntity
  8
Layer 1
 62
   142
420
    35279
370
    35
100
AcDb2dPolyline
 66
     1
 10
0.0
 20
0.0
 30
0.0
  0
VERTEX
  5
66
330
65
100
AcDbEntity
  8
Layer 1
 62
   142
420
    35279
370
    35
100
AcDbVertex
100
AcDb2dVertex
 10
202.7301094279694
 20
-147.6686975696788
 30
0.0
  0
VERTEX
  5
67
330
65
100
AcDbEntity
  8
Layer 1
 62
   142
420
    35279
370
    35
100
AcDbVertex
100
AcDb2dVertex
 10
202.7301094279694
 20
-67.02179325614222
 30
0.0
  0
SEQEND
  5
68
330
65
100
AcDbEntity
  8
Layer 1
 62
   142
420
    35279
370
    35
  0
SPLINE
  5
69
330
41
100
AcDbEntity
  8
Layer 1
 62
   142
420
    35279
370
    35
100
AcDbSpline
210
0.0
220
0.0
230
1.0
 70
     8
 71
     3
 72
     8
 73
     4
 74
     0
 42
0.0000000001
 43
0.0000000001
 12
1.0
 22
0.0
 32
0.0
 13
1.0
 23
0.0
 33
0.0
 40
0.0
 40
0.0
 40
0.0
 40
0.0
 40
1.0
 40
1.0
 40
1.0
 40
1.0
 10
203.2047863073237
 20
-67.4573119016681
 30
0.0
 10
202.9489396982208
 20
-66.75765366904764
 30
0.0
 10
202.7885721767911
 20
-66.02449400215583
 30
0.0
 10
202.7301094279694
 20
-65.2824921534312
 30
0.0
  0
SPLINE
  5
6A
330
41
100
AcDbEntity
  8
Layer 1
 62
   142
420
    35279
370
    35
100
AcDbSpline
210
0.0
220
0.0
230
1.0
 70
     8
 71
     3
 72
     8
 73
     4
 74
     0
 42
0.0000000001
 43
0.0000000001
 12
1.0
 22
0.0
 32
0.0
 13
1.0
 23
0.0
 33
0.0
 40
0.0
 40
0.0
 40
0.0
 40
0.0
 40
1.0
 40
1.0
 40
1.0
 40
1.0
 10
202.2560092126466
 20
-67.4573119016681
 30
0.0
 10
202.5118283615571
 20
-66.75765366904764
 30
0.0
 10
202.6716741393381
 20
-66.02449400215583
 30
0.0
 10
202.7301094279694
 20
-65.2824921534312
 30
0.0
  0
POLYLINE
  5
6B
330
41
100
AcDbEntity
  8
Layer 1
 62
   142
420
    35279
370
    35
100
AcDb2dPolyline
 66
     1
 10
0.0
 20
0.0
 30
0.0
  0
VERTEX
  5
6C
330
6B
100
AcDbEntity
  8
Layer 1
 62
   142
420
    35279
370
    35
100
AcDbVertex
100
AcDb2dVertex
 10
202.2560092126466
 20
-67.4573119016681
 30
0.0
  0
VERTEX
  5
6D
330
6B
100
AcDbEntity
  8
Layer 1
 62
   142
420
    35279
370
    35
100
AcDbVertex
100
AcDb2dVertex
 10
203.2047863073237
 20
-67.4573119016681
 30
0.0
  0
SEQEND
  5
6E
330
6B
100
AcDbEntity
  8
Layer 1
 62
   142
420
    35279
370
    35
  0
POLYLINE
  5
6F
330
41
100
AcDbEntity
  8
Layer 1
 62
   142
420
    35279
370
    35
100
AcDb2dPolyline
 66
     1
 10
0.0
 20
0.0
 30
0.0
  0
VERTEX
  5
70
330
6F
100
AcDbEntity
  8
Layer 1
 62
   142
420
    35279
370
    35
100
AcDbVertex
100
AcDb2dVertex
 10
203.2251617698062
 20
-65.2824921534312
 30
0.0
  0
VERTEX
  5
71
330
6F
100
AcDbEntity
  8
Layer 1
 62
   142
420
    35279
370
    35
100
AcDbVertex
100
AcDb2dVertex
 10
156.1153625169777
 20
-65.2824921534312
 30
0.0
  0
SEQEND
  5
72
330
6F
100
AcDbEntity
  8
Layer 1
 62
   142
420
    35279
370
    35
  0
POLYLINE
  5
73
330
41
100
AcDbEntity
  8
Layer 1
 62
   142
420
    35279
370
    35
100
AcDb2dPolyline
 66
     1
 10
0.0
 20
0.0
 30
0.0
  0
VERTEX
  5
74
330
73
100
AcDbEntity
  8
Layer 1
 62
   142
420
    35279
370
    35
100
AcDbVertex
100
AcDb2dVertex
 10
184.706694772524
 20
-93.61608304662555
 30
0.0
  0
VERTEX
  5
75
330
73
100
AcDbEntity
  8
Layer 1
 62
   142
420
    35279
370
    35
100
AcDbVertex
100
AcDb2dVertex
 10
184.706694772524
 20
-48.9812159806818
 30
0.0
  0
SEQEND
  5
76
330
73
100
AcDbEntity
  8
Layer 1
 62
   142
420
    35279
370
    35
  0
POLYLINE
  5
77
330
41
100
AcDbEntity
  8
Layer 1
 62
   142
420
    35279
370
    35
100
AcDb2dPolyline
 66
     1
 10
0.0
 20
0.0
 30
0.0
  0
VERTEX
  5
78
330
77
100
AcDbEntity
  8
Layer 1
 62
   142
420
    35279
370
    35
100
AcDbVertex
100
AcDb2dVertex
 10
97.60211440128182
 20
-49.47516991483835
 30
0.0
  0
VERTEX
  5
79
330
77
100
AcDbEntity
  8
Layer 1
 62
   142
420
    35279
370
    35
100
AcDbVertex
100
AcDb2dVertex
 10
182.9668170057802
 20
-49.47516991483835
 30
0.0
  0
SEQEND
  5
7A
330
77
100
AcDbEntity
  8
Layer 1
 62
   142
420
    35279
370
    35
  0
SPLINE
  5
7B
330
41
100
AcDbEntity
  8
Layer 1
 62
   142
420
    35279
370
    35
100
AcDbSpline
210
0.0
220
0.0
230
1.0
 70
     8
 71
     3
 72
     8
 73
     4
 74
     0
 42
0.0000000001
 43
0.0000000001
 12
1.0
 22
0.0
 32
0.0
 13
1.0
 23
0.0
 33
0.0
 40
0.0
 40
0.0
 40
0.0
 40
0.0
 40
1.0
 40
1.0
 40
1.0
 40
1.0
 10
182.5318750242871
 20
-49.94954473208136
 30
0.0
 10
183.2307094511463
 20
-49.69372558317088
 30
0.0
 10
183.9638691180387
 20
-49.53363266366135
 30
0.0
 10
184.706694772524
 20
-49.47516991483835
 30
0.0
  0
SPLINE
  5
7C
330
41
100
AcDbEntity
  8
Layer 1
 62
   142
420
    35279
370
    35
100
AcDbSpline
210
0.0
220
0.0
230
1.0
 70
     8
 71
     3
 72
     8
 73
     4
 74
     0
 42
0.0000000001
 43
0.0000000001
 12
1.0
 22
0.0
 32
0.0
 13
1.0
 23
0.0
 33
0.0
 40
0.0
 40
0.0
 40
0.0
 40
0.0
 40
1.0
 40
1.0
 40
1.0
 40
1.0
 10
182.5318750242871
 20
-49.00079509759598
 30
0.0
 10
183.2307094511463
 20
-49.25688884842732
 30
0.0
 10
183.9638691180387
 20
-49.4169817679362
 30
0.0
 10
184.706694772524
 20
-49.47516991483835
 30
0.0
  0
POLYLINE
  5
7D
330
41
100
AcDbEntity
  8
Layer 1
 62
   142
420
    35279
370
    35
100
AcDb2dPolyline
 66
     1
 10
0.0
 20
0.0
 30
0.0
  0
VERTEX
  5
7E
330
7D
100
AcDbEntity
  8
Layer 1
 62
   142
420
    35279
370
    35
100
AcDbVertex
100
AcDb2dVertex
 10
182.5318750242871
 20
-49.00079509759598
 30
0.0
  0
VERTEX
  5
7F
330
7D
100
AcDbEntity
  8
Layer 1
 62
   142
420
    35279
370
    35
100
AcDbVertex
100
AcDb2dVertex
 10
182.5318750242871
 20
-49.94954473208136
 30
0.0
  0
SEQEND
  5
80
330
7D
100
AcDbEntity
  8
Layer 1
 62
   142
420
    35279
370
    35
  0
INSERT
  5
82
330
41
100
AcDbEntity
  8
Layer 1
100
AcDbBlockReference
  2
block 7
 10
0.0
 20
0.0
 30
0.0
  0
POLYLINE
  5
86
330
41
100
AcDbEntity
  8
Layer 1
 62
   142
420
    35279
370
    35
100
AcDb2dPolyline
 66
     1
 10
0.0
 20
0.0
 30
0.0
  0
VERTEX
  5
87
330
86
100
AcDbEntity
  8
Layer 1
 62
   142
420
    35279
370
    35
100
AcDbVertex
100
AcDb2dVertex
 10
91.99957618344476
 20
-49.47516991483835
 30
0.0
  0
VERTEX
  5
88
330
86
100
AcDbEntity
  8
Layer 1
 62
   142
420
    35279
370
    35
100
AcDbVertex
100
AcDb2dVertex
 10
6.636466270082988
 20
-49.47516991483835
 30
0.0
  0
SEQEND
  5
89
330
86
100
AcDbEntity
  8
Layer 1
 62
   142
420
    35279
370
    35
  0
SPLINE
  5
8A
330
41
100
AcDbEntity
  8
Layer 1
 62
   142
420
    35279
370
    35
100
AcDbSpline
210
0.0
220
0.0
230
1.0
 70
     8
 71
     3
 72
     8
 73
     4
 74
     0
 42
0.0000000001
 43
0.0000000001
 12
1.0
 22
0.0
 32
0.0
 13
1.0
 23
0.0
 33
0.0
 40
0.0
 40
0.0
 40
0.0
 40
0.0
 40
1.0
 40
1.0
 40
1.0
 40
1.0
 10
7.071161109848238
 20
-49.00079509759598
 30
0.0
 10
6.371502877227763
 20
-49.25688884842732
 30
0.0
 10
5.638343210335324
 20
-49.4169817679362
 30
0.0
 10
4.896341361611332
 20
-49.47516991483835
 30
0.0
  0
SPLINE
  5
8B
330
41
100
AcDbEntity
  8
Layer 1
 62
   142
420
    35279
370
    35
100
AcDbSpline
210
0.0
220
0.0
230
1.0
 70
     8
 71
     3
 72
     8
 73
     4
 74
     0
 42
0.0000000001
 43
0.0000000001
 12
1.0
 22
0.0
 32
0.0
 13
1.0
 23
0.0
 33
0.0
 40
0.0
 40
0.0
 40
0.0
 40
0.0
 40
1.0
 40
1.0
 40
1.0
 40
1.0
 10
7.071161109848238
 20
-49.94954473208136
 30
0.0
 10
6.371502877227763
 20
-49.69372558317088
 30
0.0
 10
5.638343210335324
 20
-49.53363266366135
 30
0.0
 10
4.896341361611332
 20
-49.47516991483835
 30
0.0
  0
POLYLINE
  5
8C
330
41
100
AcDbEntity
  8
Layer 1
 62
   142
420
    35279
370
    35
100
AcDb2dPolyline
 66
     1
 10
0.0
 20
0.0
 30
0.0
  0
VERTEX
  5
8D
330
8C
100
AcDbEntity
  8
Layer 1
 62
   142
420
    35279
370
    35
100
AcDbVertex
100
AcDb2dVertex
 10
7.071161109848238
 20
-49.94954473208136
 30
0.0
  0
VERTEX
  5
8E
330
8C
100
AcDbEntity
  8
Layer 1
 62
   142
420
    35279
370
    35
100
AcDbVertex
100
AcDb2dVertex
 10
7.071161109848238
 20
-49.00079509759598
 30
0.0
  0
SEQEND
  5
8F
330
8C
100
AcDbEntity
  8
Layer 1
 62
   142
420
    35279
370
    35
  0
POLYLINE
  5
90
330
41
100
AcDbEntity
  8
Layer 1
 62
   142
420
    35279
370
    35
100
AcDb2dPolyline
 66
     1
 10
0.0
 20
0.0
 30
0.0
  0
VERTEX
  5
91
330
90
100
AcDbEntity
  8
Layer 1
 62
   142
420
    35279
370
    35
100
AcDbVertex
100
AcDb2dVertex
 10
4.896341361611332
 20
-48.98094137876158
 30
0.0
  0
VERTEX
  5
92
330
90
100
AcDbEntity
  8
Layer 1
 62
   142
420
    35279
370
    35
100
AcDbVertex
100
AcDb2dVertex
 10
4.896341361611332
 20
-93.61608304662555
 30
0.0
  0
SEQEND
  5
93
330
90
100
AcDbEntity
  8
Layer 1
 62
   142
420
    35279
370
    35
  0
POLYLINE
  5
94
330
41
100
AcDbEntity
  8
Layer 1
 62
   142
420
    35279
370
    35
100
AcDb2dPolyline
 66
     1
 10
0.0
 20
0.0
 30
0.0
  0
VERTEX
  5
95
330
94
100
AcDbEntity
  8
Layer 1
 62
   142
420
    35279
370
    35
100
AcDbVertex
100
AcDb2dVertex
 10
161.723804676099
 20
-90.96930497804352
 30
0.0
  0
VERTEX
  5
96
330
94
100
AcDbEntity
  8
Layer 1
 62
   142
420
    35279
370
    35
100
AcDbVertex
100
AcDb2dVertex
 10
196.6529492511621
 20
-90.96930497804352
 30
0.0
  0
SEQEND
  5
97
330
94
100
AcDbEntity
  8
Layer 1
 62
   142
420
    35279
370
    35
  0
POLYLINE
  5
98
330
41
100
AcDbEntity
  8
Layer 1
 62
   142
420
    35279
370
    35
100
AcDb2dPolyline
 66
     1
 10
0.0
 20
0.0
 30
0.0
  0
VERTEX
  5
99
330
98
100
AcDbEntity
  8
Layer 1
 62
   142
420
    35279
370
    35
100
AcDbVertex
100
AcDb2dVertex
 10
196.1589953170049
 20
-153.5066520137506
 30
0.0
  0
VERTEX
  5
9A
330
98
100
AcDbEntity
  8
Layer 1
 62
   142
420
    35279
370
    35
100
AcDbVertex
100
AcDb2dVertex
 10
196.1589953170049
 20
-92.70967702824369
 30
0.0
  0
SEQEND
  5
9B
330
98
100
AcDbEntity
  8
Layer 1
 62
   142
420
    35279
370
    35
  0
SPLINE
  5
9C
330
41
100
AcDbEntity
  8
Layer 1
 62
   142
420
    35279
370
    35
100
AcDbSpline
210
0.0
220
0.0
230
1.0
 70
     8
 71
     3
 72
     8
 73
     4
 74
     0
 42
0.0000000001
 43
0.0000000001
 12
1.0
 22
0.0
 32
0.0
 13
1.0
 23
0.0
 33
0.0
 40
0.0
 40
0.0
 40
0.0
 40
0.0
 40
1.0
 40
1.0
 40
1.0
 40
1.0
 10
196.6330955323264
 20
-93.14412472628108
 30
0.0
 10
196.3772763834153
 20
-92.44474109558081
 30
0.0
 10
196.2174306056343
 20
-91.71158142868838
 30
0.0
 10
196.1589953170049
 20
-90.96930497804352
 30
0.0
  0
SPLINE
  5
9D
330
41
100
AcDbEntity
  8
Layer 1
 62
   142
420
    35279
370
    35
100
AcDbSpline
210
0.0
220
0.0
230
1.0
 70
     8
 71
     3
 72
     8
 73
     4
 74
     0
 42
0.0000000001
 43
0.0000000001
 12
1.0
 22
0.0
 32
0.0
 13
1.0
 23
0.0
 33
0.0
 40
0.0
 40
0.0
 40
0.0
 40
0.0
 40
1.0
 40
1.0
 40
1.0
 40
1.0
 10
195.6848676414897
 20
-93.14412472628108
 30
0.0
 10
195.9401650467522
 20
-92.44474109558081
 30
0.0
 10
196.1005325681813
 20
-91.71158142868838
 30
0.0
 10
196.1589953170049
 20
-90.96930497804352
 30
0.0
  0
POLYLINE
  5
9E
330
41
100
AcDbEntity
  8
Layer 1
 62
   142
420
    35279
370
    35
100
AcDb2dPolyline
 66
     1
 10
0.0
 20
0.0
 30
0.0
  0
VERTEX
  5
9F
330
9E
100
AcDbEntity
  8
Layer 1
 62
   142
420
    35279
370
    35
100
AcDbVertex
100
AcDb2dVertex
 10
195.6848676414897
 20
-93.14412472628108
 30
0.0
  0
VERTEX
  5
A0
330
9E
100
AcDbEntity
  8
Layer 1
 62
   142
420
    35279
370
    35
100
AcDbVertex
100
AcDb2dVertex
 10
196.6330955323264
 20
-93.14412472628108
 30
0.0
  0
SEQEND
  5
A1
330
9E
100
AcDbEntity
  8
Layer 1
 62
   142
420
    35279
370
    35
  0
INSERT
  5
A3
330
41
100
AcDbEntity
  8
Layer 1
100
AcDbBlockReference
  2
block 8
 10
0.0
 20
0.0
 30
0.0
  0
POLYLINE
  5
A7
330
41
100
AcDbEntity
  8
Layer 1
 62
   142
420
    35279
370
    35
100
AcDb2dPolyline
 66
     1
 10
0.0
 20
0.0
 30
0.0
  0
VERTEX
  5
A8
330
A7
100
AcDbEntity
  8
Layer 1
 62
   142
420
    35279
370
    35
100
AcDbVertex
100
AcDb2dVertex
 10
196.1589953170049
 20
-156.8678618982645
 30
0.0
  0
VERTEX
  5
A9
330
A7
100
AcDbEntity
  8
Layer 1
 62
   142
420
    35279
370
    35
100
AcDbVertex
100
AcDb2dVertex
 10
196.1589953170049
 20
-217.6653586274198
 30
0.0
  0
SEQEND
  5
AA
330
A7
100
AcDbEntity
  8
Layer 1
 62
   142
420
    35279
370
    35
  0
SPLINE
  5
AB
330
41
100
AcDbEntity
  8
Layer 1
 62
   142
420
    35279
370
    35
100
AcDbSpline
210
0.0
220
0.0
230
1.0
 70
     8
 71
     3
 72
     8
 73
     4
 74
     0
 42
0.0000000001
 43
0.0000000001
 12
1.0
 22
0.0
 32
0.0
 13
1.0
 23
0.0
 33
0.0
 40
0.0
 40
0.0
 40
0.0
 40
0.0
 40
1.0
 40
1.0
 40
1.0
 40
1.0
 10
195.6848676414897
 20
-217.2306637876539
 30
0.0
 10
195.9401650467522
 20
-217.9300474183554
 30
0.0
 10
196.1005325681813
 20
-218.6632070852466
 30
0.0
 10
196.1589953170049
 20
-219.4057581378123
 30
0.0
  0
SPLINE
  5
AC
330
41
100
AcDbEntity
  8
Layer 1
 62
   142
420
    35279
370
    35
100
AcDbSpline
210
0.0
220
0.0
230
1.0
 70
     8
 71
     3
 72
     8
 73
     4
 74
     0
 42
0.0000000001
 43
0.0000000001
 12
1.0
 22
0.0
 32
0.0
 13
1.0
 23
0.0
 33
0.0
 40
0.0
 40
0.0
 40
0.0
 40
0.0
 40
1.0
 40
1.0
 40
1.0
 40
1.0
 10
196.6330955323264
 20
-217.2306637876539
 30
0.0
 10
196.3772763834153
 20
-217.9300474183554
 30
0.0
 10
196.2174306056343
 20
-218.6632070852466
 30
0.0
 10
196.1589953170049
 20
-219.4057581378123
 30
0.0
  0
POLYLINE
  5
AD
330
41
100
AcDbEntity
  8
Layer 1
 62
   142
420
    35279
370
    35
100
AcDb2dPolyline
 66
     1
 10
0.0
 20
0.0
 30
0.0
  0
VERTEX
  5
AE
330
AD
100
AcDbEntity
  8
Layer 1
 62
   142
420
    35279
370
    35
100
AcDbVertex
100
AcDb2dVertex
 10
196.6330955323264
 20
-217.2306637876539
 30
0.0
  0
VERTEX
  5
AF
330
AD
100
AcDbEntity
  8
Layer 1
 62
   142
420
    35279
370
    35
100
AcDbVertex
100
AcDb2dVertex
 10
195.6848676414897
 20
-217.2306637876539
 30
0.0
  0
SEQEND
  5
B0
330
AD
100
AcDbEntity
  8
Layer 1
 62
   142
420
    35279
370
    35
  0
POLYLINE
  5
B1
330
41
100
AcDbEntity
  8
Layer 1
 62
   142
420
    35279
370
    35
100
AcDb2dPolyline
 66
     1
 10
0.0
 20
0.0
 30
0.0
  0
VERTEX
  5
B2
330
B1
100
AcDbEntity
  8
Layer 1
 62
   142
420
    35279
370
    35
100
AcDbVertex
100
AcDb2dVertex
 10
196.6529492511621
 20
-219.4057581378123
 30
0.0
  0
VERTEX
  5
B3
330
B1
100
AcDbEntity
  8
Layer 1
 62
   142
420
    35279
370
    35
100
AcDbVertex
100
AcDb2dVertex
 10
160.7235397213737
 20
-219.4057581378123
 30
0.0
  0
SEQEND
  5
B4
330
B1
100
AcDbEntity
  8
Layer 1
 62
   142
420
    35279
370
    35
  0
POLYLINE
  5
B5
330
41
100
AcDbEntity
  8
Layer 1
 62
   142
420
    35279
370
    35
100
AcDb2dPolyline
 66
     1
 10
0.0
 20
0.0
 30
0.0
  0
VERTEX
  5
B6
330
B5
100
AcDbEntity
  8
Layer 1
 62
   142
420
    35279
370
    35
100
AcDbVertex
100
AcDb2dVertex
 10
159.0190856023434
 20
-88.26510764793531
 30
0.0
  0
VERTEX
  5
B7
330
B5
100
AcDbEntity
  8
Layer 1
 62
   142
420
    35279
370
    35
100
AcDbVertex
100
AcDb2dVertex
 10
159.0190856023434
 20
-55.6467382318302
 30
0.0
  0
SEQEND
  5
B8
330
B5
100
AcDbEntity
  8
Layer 1
 62
   142
420
    35279
370
    35
  0
POLYLINE
  5
B9
330
41
100
AcDbEntity
  8
Layer 1
 62
   142
420
    35279
370
    35
100
AcDb2dPolyline
 66
     1
 10
0.0
 20
0.0
 30
0.0
  0
VERTEX
  5
BA
330
B9
100
AcDbEntity
  8
Layer 1
 62
   142
420
    35279
370
    35
100
AcDbVertex
100
AcDb2dVertex
 10
97.60211440128182
 20
-56.14044502425889
 30
0.0
  0
VERTEX
  5
BB
330
B9
100
AcDbEntity
  8
Layer 1
 62
   142
420
    35279
370
    35
100
AcDbVertex
100
AcDb2dVertex
 10
157.2792078355989
 20
-56.14044502425889
 30
0.0
  0
SEQEND
  5
BC
330
B9
100
AcDbEntity
  8
Layer 1
 62
   142
420
    35279
370
    35
  0
SPLINE
  5
BD
330
41
100
AcDbEntity
  8
Layer 1
 62
   142
420
    35279
370
    35
100
AcDbSpline
210
0.0
220
0.0
230
1.0
 70
     8
 71
     3
 72
     8
 73
     4
 74
     0
 42
0.0000000001
 43
0.0000000001
 12
1.0
 22
0.0
 32
0.0
 13
1.0
 23
0.0
 33
0.0
 40
0.0
 40
0.0
 40
0.0
 40
0.0
 40
1.0
 40
1.0
 40
1.0
 40
1.0
 10
156.8442383939135
 20
-56.61481984150189
 30
0.0
 10
157.5436220246144
 20
-56.35900069259078
 30
0.0
 10
158.2767816915068
 20
-56.19915491480976
 30
0.0
 10
159.0190856023434
 20
-56.14044502425889
 30
0.0
  0
SPLINE
  5
BE
330
41
100
AcDbEntity
  8
Layer 1
 62
   142
420
    35279
370
    35
100
AcDbSpline
210
0.0
220
0.0
230
1.0
 70
     8
 71
     3
 72
     8
 73
     4
 74
     0
 42
0.0000000001
 43
0.0000000001
 12
1.0
 22
0.0
 32
0.0
 13
1.0
 23
0.0
 33
0.0
 40
0.0
 40
0.0
 40
0.0
 40
0.0
 40
1.0
 40
1.0
 40
1.0
 40
1.0
 10
156.8442383939135
 20
-55.66631734874439
 30
0.0
 10
157.5436220246144
 20
-55.92188935592699
 30
0.0
 10
158.2767816915068
 20
-56.08198227543652
 30
0.0
 10
159.0190856023434
 20
-56.14044502425889
 30
0.0
  0
POLYLINE
  5
BF
330
41
100
AcDbEntity
  8
Layer 1
 62
   142
420
    35279
370
    35
100
AcDb2dPolyline
 66
     1
 10
0.0
 20
0.0
 30
0.0
  0
VERTEX
  5
C0
330
BF
100
AcDbEntity
  8
Layer 1
 62
   142
420
    35279
370
    35
100
AcDbVertex
100
AcDb2dVertex
 10
156.8442383939135
 20
-55.66631734874439
 30
0.0
  0
VERTEX
  5
C1
330
BF
100
AcDbEntity
  8
Layer 1
 62
   142
420
    35279
370
    35
100
AcDbVertex
100
AcDb2dVertex
 10
156.8442383939135
 20
-56.61481984150189
 30
0.0
  0
SEQEND
  5
C2
330
BF
100
AcDbEntity
  8
Layer 1
 62
   142
420
    35279
370
    35
  0
INSERT
  5
C4
330
41
100
AcDbEntity
  8
Layer 1
100
AcDbBlockReference
  2
block 9
 10
0.0
 20
0.0
 30
0.0
  0
POLYLINE
  5
C8
330
41
100
AcDbEntity
  8
Layer 1
 62
   142
420
    35279
370
    35
100
AcDb2dPolyline
 66
     1
 10
0.0
 20
0.0
 30
0.0
  0
VERTEX
  5
C9
330
C8
100
AcDbEntity
  8
Layer 1
 62
   142
420
    35279
370
    35
100
AcDbVertex
100
AcDb2dVertex
 10
91.99957618344476
 20
-56.14044502425889
 30
0.0
  0
VERTEX
  5
CA
330
C8
100
AcDbEntity
  8
Layer 1
 62
   142
420
    35279
370
    35
100
AcDbVertex
100
AcDb2dVertex
 10
32.32355369661553
 20
-56.14044502425889
 30
0.0
  0
SEQEND
  5
CB
330
C8
100
AcDbEntity
  8
Layer 1
 62
   142
420
    35279
370
    35
  0
SPLINE
  5
CC
330
41
100
AcDbEntity
  8
Layer 1
 62
   142
420
    35279
370
    35
100
AcDbSpline
210
0.0
220
0.0
230
1.0
 70
     8
 71
     3
 72
     8
 73
     4
 74
     0
 42
0.0000000001
 43
0.0000000001
 12
1.0
 22
0.0
 32
0.0
 13
1.0
 23
0.0
 33
0.0
 40
0.0
 40
0.0
 40
0.0
 40
0.0
 40
1.0
 40
1.0
 40
1.0
 40
1.0
 10
32.7579739344612
 20
-55.66631734874439
 30
0.0
 10
32.05913950760073
 20
-55.92188935592699
 30
0.0
 10
31.32595238051659
 20
-56.08198227543652
 30
0.0
 10
30.58367592987174
 20
-56.14044502425889
 30
0.0
  0
SPLINE
  5
CD
330
41
100
AcDbEntity
  8
Layer 1
 62
   142
420
    35279
370
    35
100
AcDbSpline
210
0.0
220
0.0
230
1.0
 70
     8
 71
     3
 72
     8
 73
     4
 74
     0
 42
0.0000000001
 43
0.0000000001
 12
1.0
 22
0.0
 32
0.0
 13
1.0
 23
0.0
 33
0.0
 40
0.0
 40
0.0
 40
0.0
 40
0.0
 40
1.0
 40
1.0
 40
1.0
 40
1.0
 10
32.7579739344612
 20
-56.61481984150189
 30
0.0
 10
32.05913950760073
 20
-56.35900069259078
 30
0.0
 10
31.32595238051659
 20
-56.19915491480976
 30
0.0
 10
30.58367592987174
 20
-56.14044502425889
 30
0.0
  0
POLYLINE
  5
CE
330
41
100
AcDbEntity
  8
Layer 1
 62
   142
420
    35279
370
    35
100
AcDb2dPolyline
 66
     1
 10
0.0
 20
0.0
 30
0.0
  0
VERTEX
  5
CF
330
CE
100
AcDbEntity
  8
Layer 1
 62
   142
420
    35279
370
    35
100
AcDbVertex
100
AcDb2dVertex
 10
32.7579739344612
 20
-56.61481984150189
 30
0.0
  0
VERTEX
  5
D0
330
CE
100
AcDbEntity
  8
Layer 1
 62
   142
420
    35279
370
    35
100
AcDbVertex
100
AcDb2dVertex
 10
32.7579739344612
 20
-55.66631734874439
 30
0.0
  0
SEQEND
  5
D1
330
CE
100
AcDbEntity
  8
Layer 1
 62
   142
420
    35279
370
    35
  0
POLYLINE
  5
D2
330
41
100
AcDbEntity
  8
Layer 1
 62
   142
420
    35279
370
    35
100
AcDb2dPolyline
 66
     1
 10
0.0
 20
0.0
 30
0.0
  0
VERTEX
  5
D3
330
D2
100
AcDbEntity
  8
Layer 1
 62
   142
420
    35279
370
    35
100
AcDbVertex
100
AcDb2dVertex
 10
30.58367592987174
 20
-55.6467382318302
 30
0.0
  0
VERTEX
  5
D4
330
D2
100
AcDbEntity
  8
Layer 1
 62
   142
420
    35279
370
    35
100
AcDbVertex
100
AcDb2dVertex
 10
30.58367592987174
 20
-88.26510764793531
 30
0.0
  0
SEQEND
  5
D5
330
D2
100
AcDbEntity
  8
Layer 1
 62
   142
420
    35279
370
    35
  0
POLYLINE
  5
D6
330
41
100
AcDbEntity
  8
Layer 1
 62
   142
420
    35279
370
    35
100
AcDb2dPolyline
 66
     1
 10
0.0
 20
0.0
 30
0.0
  0
VERTEX
  5
D7
330
D6
100
AcDbEntity
  8
Layer 1
 62
   142
420
    35279
370
    35
100
AcDbVertex
100
AcDb2dVertex
 10
196.1584461131638
 20
-76.44517005261648
 30
0.0
  0
VERTEX
  5
D8
330
D6
100
AcDbEntity
  8
Layer 1
 62
   142
420
    35279
370
    35
100
AcDbVertex
100
AcDb2dVertex
 10
196.1584461131638
 20
-67.02179325614222
 30
0.0
  0
SEQEND
  5
D9
330
D6
100
AcDbEntity
  8
Layer 1
 62
   142
420
    35279
370
    35
  0
SPLINE
  5
DA
330
41
100
AcDbEntity
  8
Layer 1
 62
   142
420
    35279
370
    35
100
AcDbSpline
210
0.0
220
0.0
230
1.0
 70
     8
 71
     3
 72
     8
 73
     4
 74
     0
 42
0.0000000001
 43
0.0000000001
 12
1.0
 22
0.0
 32
0.0
 13
1.0
 23
0.0
 33
0.0
 40
0.0
 40
0.0
 40
0.0
 40
0.0
 40
1.0
 40
1.0
 40
1.0
 40
1.0
 10
196.6330955323264
 20
-67.4573119016681
 30
0.0
 10
196.3772763834153
 20
-66.75765366904764
 30
0.0
 10
196.2169088619862
 20
-66.02449400215583
 30
0.0
 10
196.1584461131638
 20
-65.2824921534312
 30
0.0
  0
SPLINE
  5
DB
330
41
100
AcDbEntity
  8
Layer 1
 62
   142
420
    35279
370
    35
100
AcDbSpline
210
0.0
220
0.0
230
1.0
 70
     8
 71
     3
 72
     8
 73
     4
 74
     0
 42
0.0000000001
 43
0.0000000001
 12
1.0
 22
0.0
 32
0.0
 13
1.0
 23
0.0
 33
0.0
 40
0.0
 40
0.0
 40
0.0
 40
0.0
 40
1.0
 40
1.0
 40
1.0
 40
1.0
 10
195.6843184376493
 20
-67.4573119016681
 30
0.0
 10
195.9401650467522
 20
-66.75765366904764
 30
0.0
 10
196.0999833643408
 20
-66.02449400215583
 30
0.0
 10
196.1584461131638
 20
-65.2824921534312
 30
0.0
  0
POLYLINE
  5
DC
330
41
100
AcDbEntity
  8
Layer 1
 62
   142
420
    35279
370
    35
100
AcDb2dPolyline
 66
     1
 10
0.0
 20
0.0
 30
0.0
  0
VERTEX
  5
DD
330
DC
100
AcDbEntity
  8
Layer 1
 62
   142
420
    35279
370
    35
100
AcDbVertex
100
AcDb2dVertex
 10
195.6843184376493
 20
-67.4573119016681
 30
0.0
  0
VERTEX
  5
DE
330
DC
100
AcDbEntity
  8
Layer 1
 62
   142
420
    35279
370
    35
100
AcDbVertex
100
AcDb2dVertex
 10
196.6330955323264
 20
-67.4573119016681
 30
0.0
  0
SEQEND
  5
DF
330
DC
100
AcDbEntity
  8
Layer 1
 62
   142
420
    35279
370
    35
  0
INSERT
  5
E1
330
41
100
AcDbEntity
  8
Layer 1
100
AcDbBlockReference
  2
block 10
 10
0.0
 20
0.0
 30
0.0
  0
POLYLINE
  5
E5
330
41
100
AcDbEntity
  8
Layer 1
 62
   142
420
    35279
370
    35
100
AcDb2dPolyline
 66
     1
 10
0.0
 20
0.0
 30
0.0
  0
VERTEX
  5
E6
330
E5
100
AcDbEntity
  8
Layer 1
 62
   142
420
    35279
370
    35
100
AcDbVertex
100
AcDb2dVertex
 10
196.1584461131638
 20
-79.80662707885826
 30
0.0
  0
VERTEX
  5
E7
330
E5
100
AcDbEntity
  8
Layer 1
 62
   142
420
    35279
370
    35
100
AcDbVertex
100
AcDb2dVertex
 10
196.1584461131638
 20
-89.22942721129974
 30
0.0
  0
SEQEND
  5
E8
330
E5
100
AcDbEntity
  8
Layer 1
 62
   142
420
    35279
370
    35
  0
SPLINE
  5
E9
330
41
100
AcDbEntity
  8
Layer 1
 62
   142
420
    35279
370
    35
100
AcDbSpline
210
0.0
220
0.0
230
1.0
 70
     8
 71
     3
 72
     8
 73
     4
 74
     0
 42
0.0000000001
 43
0.0000000001
 12
1.0
 22
0.0
 32
0.0
 13
1.0
 23
0.0
 33
0.0
 40
0.0
 40
0.0
 40
0.0
 40
0.0
 40
1.0
 40
1.0
 40
1.0
 40
1.0
 10
195.6843184376493
 20
-88.79445776961363
 30
0.0
 10
195.9401650467522
 20
-89.49411600223411
 30
0.0
 10
196.0999833643408
 20
-90.22727566912656
 30
0.0
 10
196.1584461131638
 20
-90.96930497804352
 30
0.0
  0
SPLINE
  5
EA
330
41
100
AcDbEntity
  8
Layer 1
 62
   142
420
    35279
370
    35
100
AcDbSpline
210
0.0
220
0.0
230
1.0
 70
     8
 71
     3
 72
     8
 73
     4
 74
     0
 42
0.0000000001
 43
0.0000000001
 12
1.0
 22
0.0
 32
0.0
 13
1.0
 23
0.0
 33
0.0
 40
0.0
 40
0.0
 40
0.0
 40
0.0
 40
1.0
 40
1.0
 40
1.0
 40
1.0
 10
196.6330955323264
 20
-88.79445776961363
 30
0.0
 10
196.3772763834153
 20
-89.49411600223411
 30
0.0
 10
196.2169088619862
 20
-90.22727566912656
 30
0.0
 10
196.1584461131638
 20
-90.96930497804352
 30
0.0
  0
POLYLINE
  5
EB
330
41
100
AcDbEntity
  8
Layer 1
 62
   142
420
    35279
370
    35
100
AcDb2dPolyline
 66
     1
 10
0.0
 20
0.0
 30
0.0
  0
VERTEX
  5
EC
330
EB
100
AcDbEntity
  8
Layer 1
 62
   142
420
    35279
370
    35
100
AcDbVertex
100
AcDb2dVertex
 10
196.6330955323264
 20
-88.79445776961363
 30
0.0
  0
VERTEX
  5
ED
330
EB
100
AcDbEntity
  8
Layer 1
 62
   142
420
    35279
370
    35
100
AcDbVertex
100
AcDb2dVertex
 10
195.6843184376493
 20
-88.79445776961363
 30
0.0
  0
SEQEND
  5
EE
330
EB
100
AcDbEntity
  8
Layer 1
 62
   142
420
    35279
370
    35
  0
POLYLINE
  5
EF
330
41
100
AcDbEntity
  8
Layer 1
 62
   142
420
    35279
370
    35
100
AcDb2dPolyline
 66
     1
 10
0.0
 20
0.0
 30
0.0
  0
VERTEX
  5
F0
330
EF
100
AcDbEntity
  8
Layer 1
 62
   142
420
    35279
370
    35
100
AcDbVertex
100
AcDb2dVertex
 10
196.416434617245
 20
-224.7302069910046
 30
0.0
  0
VERTEX
  5
F1
330
EF
100
AcDbEntity
  8
Layer 1
 62
   142
420
    35279
370
    35
100
AcDbVertex
100
AcDb2dVertex
 10
196.416434617245
 20
-221.1453613026358
 30
0.0
  0
SEQEND
  5
F2
330
EF
100
AcDbEntity
  8
Layer 1
 62
   142
420
    35279
370
    35
  0
SPLINE
  5
F3
330
41
100
AcDbEntity
  8
Layer 1
 62
   142
420
    35279
370
    35
100
AcDbSpline
210
0.0
220
0.0
230
1.0
 70
     8
 71
     3
 72
     8
 73
     4
 74
     0
 42
0.0000000001
 43
0.0000000001
 12
1.0
 22
0.0
 32
0.0
 13
1.0
 23
0.0
 33
0.0
 40
0.0
 40
0.0
 40
0.0
 40
0.0
 40
1.0
 40
1.0
 40
1.0
 40
1.0
 10
196.8905348325665
 20
-221.5805778860498
 30
0.0
 10
196.634715683656
 20
-220.8809471136211
 30
0.0
 10
196.474869905875
 20
-220.1475128448077
 30
0.0
 10
196.416434617245
 20
-219.4057581378123
 30
0.0
  0
SPLINE
  5
F4
330
41
100
AcDbEntity
  8
Layer 1
 62
   142
420
    35279
370
    35
100
AcDbSpline
210
0.0
220
0.0
230
1.0
 70
     8
 71
     3
 72
     8
 73
     4
 74
     0
 42
0.0000000001
 43
0.0000000001
 12
1.0
 22
0.0
 32
0.0
 13
1.0
 23
0.0
 33
0.0
 40
0.0
 40
0.0
 40
0.0
 40
0.0
 40
1.0
 40
1.0
 40
1.0
 40
1.0
 10
195.9417577378894
 20
-221.5805778860498
 30
0.0
 10
196.1976043469922
 20
-220.8809471136211
 30
0.0
 10
196.3574226645809
 20
-220.1475128448077
 30
0.0
 10
196.416434617245
 20
-219.4057581378123
 30
0.0
  0
POLYLINE
  5
F5
330
41
100
AcDbEntity
  8
Layer 1
 62
   142
420
    35279
370
    35
100
AcDb2dPolyline
 66
     1
 10
0.0
 20
0.0
 30
0.0
  0
VERTEX
  5
F6
330
F5
100
AcDbEntity
  8
Layer 1
 62
   142
420
    35279
370
    35
100
AcDbVertex
100
AcDb2dVertex
 10
195.9417577378894
 20
-221.5805778860498
 30
0.0
  0
VERTEX
  5
F7
330
F5
100
AcDbEntity
  8
Layer 1
 62
   142
420
    35279
370
    35
100
AcDbVertex
100
AcDb2dVertex
 10
196.8905348325665
 20
-221.5805778860498
 30
0.0
  0
SEQEND
  5
F8
330
F5
100
AcDbEntity
  8
Layer 1
 62
   142
420
    35279
370
    35
  0
INSERT
  5
FA
330
41
100
AcDbEntity
  8
Layer 1
100
AcDbBlockReference
  2
block 11
 10
0.0
 20
0.0
 30
0.0
  0
POLYLINE
  5
FE
330
41
100
AcDbEntity
  8
Layer 1
 62
   142
420
    35279
370
    35
100
AcDb2dPolyline
 66
     1
 10
0.0
 20
0.0
 30
0.0
  0
VERTEX
  5
FF
330
FE
100
AcDbEntity
  8
Layer 1
 62
   142
420
    35279
370
    35
100
AcDbVertex
100
AcDb2dVertex
 10
196.416434617245
 20
-228.0916640172458
 30
0.0
  0
VERTEX
  5
100
330
FE
100
AcDbEntity
  8
Layer 1
 62
   142
420
    35279
370
    35
100
AcDbVertex
100
AcDb2dVertex
 10
196.416434617245
 20
-231.6765097056158
 30
0.0
  0
SEQEND
  5
101
330
FE
100
AcDbEntity
  8
Layer 1
 62
   142
420
    35279
370
    35
  0
SPLINE
  5
102
330
41
100
AcDbEntity
  8
Layer 1
 62
   142
420
    35279
370
    35
100
AcDbSpline
210
0.0
220
0.0
230
1.0
 70
     8
 71
     3
 72
     8
 73
     4
 74
     0
 42
0.0000000001
 43
0.0000000001
 12
1.0
 22
0.0
 32
0.0
 13
1.0
 23
0.0
 33
0.0
 40
0.0
 40
0.0
 40
0.0
 40
0.0
 40
1.0
 40
1.0
 40
1.0
 40
1.0
 10
195.9417577378894
 20
-231.2415402639304
 30
0.0
 10
196.1976043469922
 20
-231.9411710363579
 30
0.0
 10
196.3574226645809
 20
-232.6743307032516
 30
0.0
 10
196.416434617245
 20
-233.4163600121679
 30
0.0
  0
SPLINE
  5
103
330
41
100
AcDbEntity
  8
Layer 1
 62
   142
420
    35279
370
    35
100
AcDbSpline
210
0.0
220
0.0
230
1.0
 70
     8
 71
     3
 72
     8
 73
     4
 74
     0
 42
0.0000000001
 43
0.0000000001
 12
1.0
 22
0.0
 32
0.0
 13
1.0
 23
0.0
 33
0.0
 40
0.0
 40
0.0
 40
0.0
 40
0.0
 40
1.0
 40
1.0
 40
1.0
 40
1.0
 10
196.8905348325665
 20
-231.2415402639304
 30
0.0
 10
196.634715683656
 20
-231.9411710363579
 30
0.0
 10
196.474869905875
 20
-232.6743307032516
 30
0.0
 10
196.416434617245
 20
-233.4163600121679
 30
0.0
  0
POLYLINE
  5
104
330
41
100
AcDbEntity
  8
Layer 1
 62
   142
420
    35279
370
    35
100
AcDb2dPolyline
 66
     1
 10
0.0
 20
0.0
 30
0.0
  0
VERTEX
  5
105
330
104
100
AcDbEntity
  8
Layer 1
 62
   142
420
    35279
370
    35
100
AcDbVertex
100
AcDb2dVertex
 10
196.8905348325665
 20
-231.2415402639304
 30
0.0
  0
VERTEX
  5
106
330
104
100
AcDbEntity
  8
Layer 1
 62
   142
420
    35279
370
    35
100
AcDbVertex
100
AcDb2dVertex
 10
195.9417577378894
 20
-231.2415402639304
 30
0.0
  0
SEQEND
  5
107
330
104
100
AcDbEntity
  8
Layer 1
 62
   142
420
    35279
370
    35
  0
POLYLINE
  5
108
330
41
100
AcDbEntity
  8
Layer 1
 62
   142
420
    35279
370
    35
100
AcDb2dPolyline
 66
     1
 10
0.0
 20
0.0
 30
0.0
  0
VERTEX
  5
109
330
108
100
AcDbEntity
  8
Layer 1
 62
   142
420
    35279
370
    35
100
AcDbVertex
100
AcDb2dVertex
 10
173.9055028411638
 20
-55.88352746766691
 30
0.0
  0
VERTEX
  5
10A
330
108
100
AcDbEntity
  8
Layer 1
 62
   142
420
    35279
370
    35
100
AcDbVertex
100
AcDb2dVertex
 10
182.9668170057802
 20
-55.88352746766691
 30
0.0
  0
SEQEND
  5
10B
330
108
100
AcDbEntity
  8
Layer 1
 62
   142
420
    35279
370
    35
  0
SPLINE
  5
10C
330
41
100
AcDbEntity
  8
Layer 1
 62
   142
420
    35279
370
    35
100
AcDbSpline
210
0.0
220
0.0
230
1.0
 70
     8
 71
     3
 72
     8
 73
     4
 74
     0
 42
0.0000000001
 43
0.0000000001
 12
1.0
 22
0.0
 32
0.0
 13
1.0
 23
0.0
 33
0.0
 40
0.0
 40
0.0
 40
0.0
 40
0.0
 40
1.0
 40
1.0
 40
1.0
 40
1.0
 10
182.5318750242871
 20
-56.35792974510226
 30
0.0
 10
183.2307094511463
 20
-56.10208313599944
 30
0.0
 10
183.9638691180387
 20
-55.94226481841013
 30
0.0
 10
184.706694772524
 20
-55.88352746766691
 30
0.0
  0
SPLINE
  5
10D
330
41
100
AcDbEntity
  8
Layer 1
 62
   142
420
    35279
370
    35
100
AcDbSpline
210
0.0
220
0.0
230
1.0
 70
     8
 71
     3
 72
     8
 73
     4
 74
     0
 42
0.0000000001
 43
0.0000000001
 12
1.0
 22
0.0
 32
0.0
 13
1.0
 23
0.0
 33
0.0
 40
0.0
 40
0.0
 40
0.0
 40
0.0
 40
1.0
 40
1.0
 40
1.0
 40
1.0
 10
182.5318750242871
 20
-55.40915265042455
 30
0.0
 10
183.2307094511463
 20
-55.66497179933566
 30
0.0
 10
183.9638691180387
 20
-55.82533932076476
 30
0.0
 10
184.706694772524
 20
-55.88352746766691
 30
0.0
  0
POLYLINE
  5
10E
330
41
100
AcDbEntity
  8
Layer 1
 62
   142
420
    35279
370
    35
100
AcDb2dPolyline
 66
     1
 10
0.0
 20
0.0
 30
0.0
  0
VERTEX
  5
10F
330
10E
100
AcDbEntity
  8
Layer 1
 62
   142
420
    35279
370
    35
100
AcDbVertex
100
AcDb2dVertex
 10
182.5318750242871
 20
-55.40915265042455
 30
0.0
  0
VERTEX
  5
110
330
10E
100
AcDbEntity
  8
Layer 1
 62
   142
420
    35279
370
    35
100
AcDbVertex
100
AcDb2dVertex
 10
182.5318750242871
 20
-56.35792974510226
 30
0.0
  0
SEQEND
  5
111
330
10E
100
AcDbEntity
  8
Layer 1
 62
   142
420
    35279
370
    35
  0
INSERT
  5
113
330
41
100
AcDbEntity
  8
Layer 1
100
AcDbBlockReference
  2
block 12
 10
0.0
 20
0.0
 30
0.0
  0
POLYLINE
  5
117
330
41
100
AcDbEntity
  8
Layer 1
 62
   142
420
    35279
370
    35
100
AcDb2dPolyline
 66
     1
 10
0.0
 20
0.0
 30
0.0
  0
VERTEX
  5
118
330
117
100
AcDbEntity
  8
Layer 1
 62
   142
420
    35279
370
    35
100
AcDbVertex
100
AcDb2dVertex
 10
169.8202500735112
 20
-55.88352746766691
 30
0.0
  0
VERTEX
  5
119
330
117
100
AcDbEntity
  8
Layer 1
 62
   142
420
    35279
370
    35
100
AcDbVertex
100
AcDb2dVertex
 10
160.7589359088948
 20
-55.88352746766691
 30
0.0
  0
SEQEND
  5
11A
330
117
100
AcDbEntity
  8
Layer 1
 62
   142
420
    35279
370
    35
  0
SPLINE
  5
11B
330
41
100
AcDbEntity
  8
Layer 1
 62
   142
420
    35279
370
    35
100
AcDbSpline
210
0.0
220
0.0
230
1.0
 70
     8
 71
     3
 72
     8
 73
     4
 74
     0
 42
0.0000000001
 43
0.0000000001
 12
1.0
 22
0.0
 32
0.0
 13
1.0
 23
0.0
 33
0.0
 40
0.0
 40
0.0
 40
0.0
 40
0.0
 40
1.0
 40
1.0
 40
1.0
 40
1.0
 10
161.1939053505803
 20
-55.40915265042455
 30
0.0
 10
160.4945217198807
 20
-55.66497179933566
 30
0.0
 10
159.7613620529882
 20
-55.82533932076476
 30
0.0
 10
159.0190856023434
 20
-55.88352746766691
 30
0.0
  0
SPLINE
  5
11C
330
41
100
AcDbEntity
  8
Layer 1
 62
   142
420
    35279
370
    35
100
AcDbSpline
210
0.0
220
0.0
230
1.0
 70
     8
 71
     3
 72
     8
 73
     4
 74
     0
 42
0.0000000001
 43
0.0000000001
 12
1.0
 22
0.0
 32
0.0
 13
1.0
 23
0.0
 33
0.0
 40
0.0
 40
0.0
 40
0.0
 40
0.0
 40
1.0
 40
1.0
 40
1.0
 40
1.0
 10
161.1939053505803
 20
-56.35792974510226
 30
0.0
 10
160.4945217198807
 20
-56.10208313599944
 30
0.0
 10
159.7613620529882
 20
-55.94226481841013
 30
0.0
 10
159.0190856023434
 20
-55.88352746766691
 30
0.0
  0
POLYLINE
  5
11D
330
41
100
AcDbEntity
  8
Layer 1
 62
   142
420
    35279
370
    35
100
AcDb2dPolyline
 66
     1
 10
0.0
 20
0.0
 30
0.0
  0
VERTEX
  5
11E
330
11D
100
AcDbEntity
  8
Layer 1
 62
   142
420
    35279
370
    35
100
AcDbVertex
100
AcDb2dVertex
 10
161.1939053505803
 20
-56.35792974510226
 30
0.0
  0
VERTEX
  5
11F
330
11D
100
AcDbEntity
  8
Layer 1
 62
   142
420
    35279
370
    35
100
AcDbVertex
100
AcDb2dVertex
 10
161.1939053505803
 20
-55.40915265042455
 30
0.0
  0
SEQEND
  5
120
330
11D
100
AcDbEntity
  8
Layer 1
 62
   142
420
    35279
370
    35
  0
POLYLINE
  5
121
330
41
100
AcDbEntity
  8
Layer 1
 62
   142
420
    35279
370
    35
100
AcDb2dPolyline
 66
     1
 10
0.0
 20
0.0
 30
0.0
  0
VERTEX
  5
122
330
121
100
AcDbEntity
  8
Layer 1
 62
   142
420
    35279
370
    35
100
AcDbVertex
100
AcDb2dVertex
 10
19.78248399851158
 20
-56.14044502425889
 30
0.0
  0
VERTEX
  5
123
330
121
100
AcDbEntity
  8
Layer 1
 62
   142
420
    35279
370
    35
100
AcDbVertex
100
AcDb2dVertex
 10
28.8438256233203
 20
-56.14044502425889
 30
0.0
  0
SEQEND
  5
124
330
121
100
AcDbEntity
  8
Layer 1
 62
   142
420
    35279
370
    35
  0
SPLINE
  5
125
330
41
100
AcDbEntity
  8
Layer 1
 62
   142
420
    35279
370
    35
100
AcDbSpline
210
0.0
220
0.0
230
1.0
 70
     8
 71
     3
 72
     8
 73
     4
 74
     0
 42
0.0000000001
 43
0.0000000001
 12
1.0
 22
0.0
 32
0.0
 13
1.0
 23
0.0
 33
0.0
 40
0.0
 40
0.0
 40
0.0
 40
0.0
 40
1.0
 40
1.0
 40
1.0
 40
1.0
 10
28.40885618163419
 20
-56.61481984150189
 30
0.0
 10
29.10796521041488
 20
-56.35900069259078
 30
0.0
 10
29.84112487730732
 20
-56.19915491480976
 30
0.0
 10
30.58367592987174
 20
-56.14044502425889
 30
0.0
  0
SPLINE
  5
126
330
41
100
AcDbEntity
  8
Layer 1
 62
   142
420
    35279
370
    35
100
AcDbSpline
210
0.0
220
0.0
230
1.0
 70
     8
 71
     3
 72
     8
 73
     4
 74
     0
 42
0.0000000001
 43
0.0000000001
 12
1.0
 22
0.0
 32
0.0
 13
1.0
 23
0.0
 33
0.0
 40
0.0
 40
0.0
 40
0.0
 40
0.0
 40
1.0
 40
1.0
 40
1.0
 40
1.0
 10
28.40885618163419
 20
-55.66631734874439
 30
0.0
 10
29.10796521041488
 20
-55.92188935592699
 30
0.0
 10
29.84112487730732
 20
-56.08198227543652
 30
0.0
 10
30.58367592987174
 20
-56.14044502425889
 30
0.0
  0
POLYLINE
  5
127
330
41
100
AcDbEntity
  8
Layer 1
 62
   142
420
    35279
370
    35
100
AcDb2dPolyline
 66
     1
 10
0.0
 20
0.0
 30
0.0
  0
VERTEX
  5
128
330
127
100
AcDbEntity
  8
Layer 1
 62
   142
420
    35279
370
    35
100
AcDbVertex
100
AcDb2dVertex
 10
28.40885618163419
 20
-55.66631734874439
 30
0.0
  0
VERTEX
  5
129
330
127
100
AcDbEntity
  8
Layer 1
 62
   142
420
    35279
370
    35
100
AcDbVertex
100
AcDb2dVertex
 10
28.40885618163419
 20
-56.61481984150189
 30
0.0
  0
SEQEND
  5
12A
330
127
100
AcDbEntity
  8
Layer 1
 62
   142
420
    35279
370
    35
  0
INSERT
  5
12C
330
41
100
AcDbEntity
  8
Layer 1
100
AcDbBlockReference
  2
block 13
 10
0.0
 20
0.0
 30
0.0
  0
POLYLINE
  5
130
330
41
100
AcDbEntity
  8
Layer 1
 62
   142
420
    35279
370
    35
100
AcDb2dPolyline
 66
     1
 10
0.0
 20
0.0
 30
0.0
  0
VERTEX
  5
131
330
130
100
AcDbEntity
  8
Layer 1
 62
   142
420
    35279
370
    35
100
AcDbVertex
100
AcDb2dVertex
 10
15.69753329297149
 20
-56.14044502425889
 30
0.0
  0
VERTEX
  5
132
330
130
100
AcDbEntity
  8
Layer 1
 62
   142
420
    35279
370
    35
100
AcDbVertex
100
AcDb2dVertex
 10
6.636466270082988
 20
-56.14044502425889
 30
0.0
  0
SEQEND
  5
133
330
130
100
AcDbEntity
  8
Layer 1
 62
   142
420
    35279
370
    35
  0
SPLINE
  5
134
330
41
100
AcDbEntity
  8
Layer 1
 62
   142
420
    35279
370
    35
100
AcDbSpline
210
0.0
220
0.0
230
1.0
 70
     8
 71
     3
 72
     8
 73
     4
 74
     0
 42
0.0000000001
 43
0.0000000001
 12
1.0
 22
0.0
 32
0.0
 13
1.0
 23
0.0
 33
0.0
 40
0.0
 40
0.0
 40
0.0
 40
0.0
 40
1.0
 40
1.0
 40
1.0
 40
1.0
 10
7.071161109848238
 20
-55.66631734874439
 30
0.0
 10
6.371502877227763
 20
-55.92188935592699
 30
0.0
 10
5.638343210335324
 20
-56.08198227543652
 30
0.0
 10
4.896341361611332
 20
-56.14044502425889
 30
0.0
  0
SPLINE
  5
135
330
41
100
AcDbEntity
  8
Layer 1
 62
   142
420
    35279
370
    35
100
AcDbSpline
210
0.0
220
0.0
230
1.0
 70
     8
 71
     3
 72
     8
 73
     4
 74
     0
 42
0.0000000001
 43
0.0000000001
 12
1.0
 22
0.0
 32
0.0
 13
1.0
 23
0.0
 33
0.0
 40
0.0
 40
0.0
 40
0.0
 40
0.0
 40
1.0
 40
1.0
 40
1.0
 40
1.0
 10
7.071161109848238
 20
-56.61481984150189
 30
0.0
 10
6.371502877227763
 20
-56.35900069259078
 30
0.0
 10
5.638343210335324
 20
-56.19915491480976
 30
0.0
 10
4.896341361611332
 20
-56.14044502425889
 30
0.0
  0
POLYLINE
  5
136
330
41
100
AcDbEntity
  8
Layer 1
 62
   142
420
    35279
370
    35
100
AcDb2dPolyline
 66
     1
 10
0.0
 20
0.0
 30
0.0
  0
VERTEX
  5
137
330
136
100
AcDbEntity
  8
Layer 1
 62
   142
420
    35279
370
    35
100
AcDbVertex
100
AcDb2dVertex
 10
7.071161109848238
 20
-56.61481984150189
 30
0.0
  0
VERTEX
  5
138
330
136
100
AcDbEntity
  8
Layer 1
 62
   142
420
    35279
370
    35
100
AcDbVertex
100
AcDb2dVertex
 10
7.071161109848238
 20
-55.66631734874439
 30
0.0
  0
SEQEND
  5
139
330
136
100
AcDbEntity
  8
Layer 1
 62
   142
420
    35279
370
    35
  0
POLYLINE
  5
13A
330
41
100
AcDbEntity
  8
Layer 1
 62
   243
420
 13980531
370
    70
100
AcDb2dPolyline
 66
     1
 10
0.0
 20
0.0
 30
0.0
  0
VERTEX
  5
13B
330
13A
100
AcDbEntity
  8
Layer 1
 62
   243
420
 13980531
370
    70
100
AcDbVertex
100
AcDb2dVertex
 10
159.0190856023434
 20
-219.4057581378123
 30
0.0
  0
VERTEX
  5
13C
330
13A
100
AcDbEntity
  8
Layer 1
 62
   243
420
 13980531
370
    70
100
AcDbVertex
100
AcDb2dVertex
 10
159.0190856023434
 20
-182.0419380173731
 30
0.0
  0
SEQEND
  5
13D
330
13A
100
AcDbEntity
  8
Layer 1
 62
   243
420
 13980531
370
    70
  0
POLYLINE
  5
13E
330
41
100
AcDbEntity
  8
Layer 1
 62
   243
420
 13980531
370
    70
100
AcDb2dPolyline
 66
     1
 10
0.0
 20
0.0
 30
0.0
  0
VERTEX
  5
13F
330
13E
100
AcDbEntity
  8
Layer 1
 62
   243
420
 13980531
370
    70
100
AcDbVertex
100
AcDb2dVertex
 10
159.0190856023434
 20
-90.96930497804352
 30
0.0
  0
VERTEX
  5
140
330
13E
100
AcDbEntity
  8
Layer 1
 62
   243
420
 13980531
370
    70
100
AcDbVertex
100
AcDb2dVertex
 10
30.58367592987174
 20
-90.96930497804352
 30
0.0
  0
VERTEX
  5
141
330
13E
100
AcDbEntity
  8
Layer 1
 62
   243
420
 13980531
370
    70
100
AcDbVertex
100
AcDb2dVertex
 10
30.58367592987174
 20
-150.9062542094995
 30
0.0
  0
SEQEND
  5
142
330
13E
100
AcDbEntity
  8
Layer 1
 62
   243
420
 13980531
370
    70
  0
POLYLINE
  5
143
330
41
100
AcDbEntity
  8
Layer 1
 62
   243
420
 13980531
370
    70
100
AcDb2dPolyline
 66
     1
 10
0.0
 20
0.0
 30
0.0
  0
VERTEX
  5
144
330
143
100
AcDbEntity
  8
Layer 1
 62
   243
420
 13980531
370
    70
100
AcDbVertex
100
AcDb2dVertex
 10
30.58367592987174
 20
-219.4057581378123
 30
0.0
  0
VERTEX
  5
145
330
143
100
AcDbEntity
  8
Layer 1
 62
   243
420
 13980531
370
    70
100
AcDbVertex
100
AcDb2dVertex
 10
159.0190856023434
 20
-219.4057581378123
 30
0.0
  0
SEQEND
  5
146
330
143
100
AcDbEntity
  8
Layer 1
 62
   243
420
 13980531
370
    70
  0
POLYLINE
  5
147
330
41
100
AcDbEntity
  8
Layer 1
 62
   250
420
  2301728
370
    70
100
AcDb2dPolyline
 66
     1
 10
0.0
 20
0.0
 30
0.0
  0
VERTEX
  5
148
330
147
100
AcDbEntity
  8
Layer 1
 62
   250
420
  2301728
370
    70
100
AcDbVertex
100
AcDb2dVertex
 10
159.0190856023434
 20
-90.96930497804352
 30
0.0
  0
VERTEX
  5
149
330
147
100
AcDbEntity
  8
Layer 1
 62
   250
420
  2301728
370
    70
100
AcDbVertex
100
AcDb2dVertex
 10
155.1274546486633
 20
-65.2824921534312
 30
0.0
  0
VERTEX
  5
14A
330
147
100
AcDbEntity
  8
Layer 1
 62
   250
420
  2301728
370
    70
100
AcDbVertex
100
AcDb2dVertex
 10
34.47558148547205
 20
-65.2824921534312
 30
0.0
  0
VERTEX
  5
14B
330
147
100
AcDbEntity
  8
Layer 1
 62
   250
420
  2301728
370
    70
100
AcDbVertex
100
AcDb2dVertex
 10
30.58367592987174
 20
-90.96930497804352
 30
0.0
  0
SEQEND
  5
14C
330
147
100
AcDbEntity
  8
Layer 1
 62
   250
420
  2301728
370
    70
  0
SPLINE
  5
14D
330
41
100
AcDbEntity
  8
Layer 1
 62
   250
420
  2301728
370
    70
100
AcDbSpline
210
0.0
220
0.0
230
1.0
 70
     8
 71
     3
 72
    14
 73
    10
 74
     0
 42
0.0000000001
 43
0.0000000001
 12
1.0
 22
0.0
 32
0.0
 13
1.0
 23
0.0
 33
0.0
 40
0.0
 40
0.0
 40
0.0
 40
0.0
 40
1.0
 40
1.0
 40
1.0
 40
2.0
 40
2.0
 40
2.0
 40
3.0
 40
3.0
 40
3.0
 40
3.0
 10
142.6727472544793
 20
-98.75388497462075
 30
0.0
 10
142.6727472544793
 20
-98.75388497462075
 30
0.0
 10
109.9800980189456
 20
-98.75388497462075
 30
0.0
 10
109.9800980189456
 20
-98.75388497462075
 30
0.0
 10
109.9800980189456
 20
-98.75388497462075
 30
0.0
 10
109.9800980189456
 20
-109.6508031353825
 30
0.0
 10
109.9800980189456
 20
-109.6508031353825
 30
0.0
 10
109.975814228989
 20
-110.9449745253575
 30
0.0
 10
108.939082139254
 20
-111.9819812170134
 30
0.0
 10
107.6449107492776
 20
-111.9859904050498
 30
0.0
  0
SPLINE
  5
14E
330
41
100
AcDbEntity
  8
Layer 1
 62
   250
420
  2301728
370
    70
100
AcDbSpline
210
0.0
220
0.0
230
1.0
 70
     8
 71
     3
 72
    14
 73
    10
 74
     0
 42
0.0000000001
 43
0.0000000001
 12
1.0
 22
0.0
 32
0.0
 13
1.0
 23
0.0
 33
0.0
 40
0.0
 40
0.0
 40
0.0
 40
0.0
 40
1.0
 40
1.0
 40
1.0
 40
2.0
 40
2.0
 40
2.0
 40
3.0
 40
3.0
 40
3.0
 40
3.0
 10
142.6727472544793
 20
-98.75388497462075
 30
0.0
 10
142.6727472544793
 20
-98.75388497462075
 30
0.0
 10
142.6727472544793
 20
-109.6508031353825
 30
0.0
 10
142.6727472544793
 20
-109.6508031353825
 30
0.0
 10
142.677031044436
 20
-110.9449745253575
 30
0.0
 10
143.7132413905229
 20
-111.9819812170134
 30
0.0
 10
145.0079345241466
 20
-111.9859904050498
 30
0.0
 10
145.0079345241466
 20
-111.9859904050498
 30
0.0
 10
150.8459164284117
 20
-111.9859904050498
 30
0.0
 10
150.8459164284117
 20
-111.9859904050498
 30
0.0
  0
SPLINE
  5
14F
330
41
100
AcDbEntity
  8
Layer 1
 62
   250
420
  2301728
370
    70
100
AcDbSpline
210
0.0
220
0.0
230
1.0
 70
     8
 71
     3
 72
    17
 73
    13
 74
     0
 42
0.0000000001
 43
0.0000000001
 12
1.0
 22
0.0
 32
0.0
 13
1.0
 23
0.0
 33
0.0
 40
0.0
 40
0.0
 40
0.0
 40
0.0
 40
1.0
 40
1.0
 40
1.0
 40
2.0
 40
2.0
 40
2.0
 40
3.0
 40
3.0
 40
3.0
 40
4.0
 40
4.0
 40
4.0
 40
4.0
 10
107.6449107492776
 20
-111.9859904050498
 30
0.0
 10
107.6449107492776
 20
-111.9859904050498
 30
0.0
 10
101.8064071013652
 20
-111.9859904050498
 30
0.0
 10
101.8064071013652
 20
-111.9859904050498
 30
0.0
 10
101.8064071013652
 20
-111.9859904050498
 30
0.0
 10
101.8064071013652
 20
-115.8781431023773
 30
0.0
 10
101.8064071013652
 20
-115.8781431023773
 30
0.0
 10
101.8064071013652
 20
-115.8781431023773
 30
0.0
 10
110.758319860952
 20
-115.8781431023773
 30
0.0
 10
110.758319860952
 20
-115.8781431023773
 30
0.0
 10
112.9149060416847
 20
-115.8848708494242
 30
0.0
 10
114.6434976695048
 20
-117.6134624772449
 30
0.0
 10
114.6504725582802
 20
-119.7703232598985
 30
0.0
  0
SPLINE
  5
150
330
41
100
AcDbEntity
  8
Layer 1
 62
   250
420
  2301728
370
    70
100
AcDbSpline
210
0.0
220
0.0
230
1.0
 70
     8
 71
     3
 72
    14
 73
    10
 74
     0
 42
0.0000000001
 43
0.0000000001
 12
1.0
 22
0.0
 32
0.0
 13
1.0
 23
0.0
 33
0.0
 40
0.0
 40
0.0
 40
0.0
 40
0.0
 40
1.0
 40
1.0
 40
1.0
 40
2.0
 40
2.0
 40
2.0
 40
3.0
 40
3.0
 40
3.0
 40
3.0
 10
150.8459164284117
 20
-111.9859904050498
 30
0.0
 10
150.8459164284117
 20
-111.9859904050498
 30
0.0
 10
150.8459164284117
 20
-115.8781431023773
 30
0.0
 10
150.8459164284117
 20
-115.8781431023773
 30
0.0
 10
150.8459164284117
 20
-115.8781431023773
 30
0.0
 10
141.8940036688249
 20
-115.8781431023773
 30
0.0
 10
141.8940036688249
 20
-115.8781431023773
 30
0.0
 10
139.7379392317402
 20
-115.8848708494242
 30
0.0
 10
138.0093476039201
 20
-117.6134624772449
 30
0.0
 10
138.0023727151448
 20
-119.7703232598985
 30
0.0
  0
POLYLINE
  5
151
330
41
100
AcDbEntity
  8
Layer 1
 62
   243
420
 13980531
370
    70
100
AcDb2dPolyline
 66
     1
 10
0.0
 20
0.0
 30
0.0
  0
VERTEX
  5
152
330
151
100
AcDbEntity
  8
Layer 1
 62
   243
420
 13980531
370
    70
100
AcDbVertex
100
AcDb2dVertex
 10
138.0023727151448
 20
-119.7703232598985
 30
0.0
  0
VERTEX
  5
153
330
151
100
AcDbEntity
  8
Layer 1
 62
   243
420
 13980531
370
    70
100
AcDbVertex
100
AcDb2dVertex
 10
138.0023727151448
 20
-122.8839795133
 30
0.0
  0
SEQEND
  5
154
330
151
100
AcDbEntity
  8
Layer 1
 62
   243
420
 13980531
370
    70
  0
POLYLINE
  5
155
330
41
100
AcDbEntity
  8
Layer 1
 62
   250
420
  2301728
370
   106
100
AcDb2dPolyline
 66
     1
 10
0.0
 20
0.0
 30
0.0
  0
VERTEX
  5
156
330
155
100
AcDbEntity
  8
Layer 1
 62
   250
420
  2301728
370
   106
100
AcDbVertex
100
AcDb2dVertex
 10
138.0023727151448
 20
-122.8839795133
 30
0.0
  0
VERTEX
  5
157
330
155
100
AcDbEntity
  8
Layer 1
 62
   250
420
  2301728
370
   106
100
AcDbVertex
100
AcDb2dVertex
 10
138.0023727151448
 20
-126.7756104669795
 30
0.0
  0
SEQEND
  5
158
330
155
100
AcDbEntity
  8
Layer 1
 62
   250
420
  2301728
370
   106
  0
POLYLINE
  5
159
330
41
100
AcDbEntity
  8
Layer 1
 62
   243
420
 13980531
370
    70
100
AcDb2dPolyline
 66
     1
 10
0.0
 20
0.0
 30
0.0
  0
VERTEX
  5
15A
330
159
100
AcDbEntity
  8
Layer 1
 62
   243
420
 13980531
370
    70
100
AcDbVertex
100
AcDb2dVertex
 10
138.0023727151448
 20
-126.7756104669795
 30
0.0
  0
VERTEX
  5
15B
330
159
100
AcDbEntity
  8
Layer 1
 62
   243
420
 13980531
370
    70
100
AcDbVertex
100
AcDb2dVertex
 10
138.0023727151448
 20
-130.6680377662285
 30
0.0
  0
SEQEND
  5
15C
330
159
100
AcDbEntity
  8
Layer 1
 62
   243
420
 13980531
370
    70
  0
POLYLINE
  5
15D
330
41
100
AcDbEntity
  8
Layer 1
 62
   250
420
  2301728
370
   106
100
AcDb2dPolyline
 66
     1
 10
0.0
 20
0.0
 30
0.0
  0
VERTEX
  5
15E
330
15D
100
AcDbEntity
  8
Layer 1
 62
   250
420
  2301728
370
   106
100
AcDbVertex
100
AcDb2dVertex
 10
138.0023727151448
 20
-130.6680377662285
 30
0.0
  0
VERTEX
  5
15F
330
15D
100
AcDbEntity
  8
Layer 1
 62
   250
420
  2301728
370
   106
100
AcDbVertex
100
AcDb2dVertex
 10
138.0023727151448
 20
-134.5596687199086
 30
0.0
  0
SEQEND
  5
160
330
15D
100
AcDbEntity
  8
Layer 1
 62
   250
420
  2301728
370
   106
  0
POLYLINE
  5
161
330
41
100
AcDbEntity
  8
Layer 1
 62
   243
420
 13980531
370
    70
100
AcDb2dPolyline
 66
     1
 10
0.0
 20
0.0
 30
0.0
  0
VERTEX
  5
162
330
161
100
AcDbEntity
  8
Layer 1
 62
   243
420
 13980531
370
    70
100
AcDbVertex
100
AcDb2dVertex
 10
138.0023727151448
 20
-134.5596687199086
 30
0.0
  0
VERTEX
  5
163
330
161
100
AcDbEntity
  8
Layer 1
 62
   243
420
 13980531
370
    70
100
AcDbVertex
100
AcDb2dVertex
 10
138.0023727151448
 20
-138.4515468153166
 30
0.0
  0
SEQEND
  5
164
330
161
100
AcDbEntity
  8
Layer 1
 62
   243
420
 13980531
370
    70
  0
POLYLINE
  5
165
330
41
100
AcDbEntity
  8
Layer 1
 62
   250
420
  2301728
370
   106
100
AcDb2dPolyline
 66
     1
 10
0.0
 20
0.0
 30
0.0
  0
VERTEX
  5
166
330
165
100
AcDbEntity
  8
Layer 1
 62
   250
420
  2301728
370
   106
100
AcDbVertex
100
AcDb2dVertex
 10
138.0023727151448
 20
-138.4515468153166
 30
0.0
  0
VERTEX
  5
167
330
165
100
AcDbEntity
  8
Layer 1
 62
   250
420
  2301728
370
   106
100
AcDbVertex
100
AcDb2dVertex
 10
138.0023727151448
 20
-142.3439741145656
 30
0.0
  0
SEQEND
  5
168
330
165
100
AcDbEntity
  8
Layer 1
 62
   250
420
  2301728
370
   106
  0
POLYLINE
  5
169
330
41
100
AcDbEntity
  8
Layer 1
 62
   243
420
 13980531
370
    70
100
AcDb2dPolyline
 66
     1
 10
0.0
 20
0.0
 30
0.0
  0
VERTEX
  5
16A
330
169
100
AcDbEntity
  8
Layer 1
 62
   243
420
 13980531
370
    70
100
AcDbVertex
100
AcDb2dVertex
 10
138.0023727151448
 20
-142.3439741145656
 30
0.0
  0
VERTEX
  5
16B
330
169
100
AcDbEntity
  8
Layer 1
 62
   243
420
 13980531
370
    70
100
AcDbVertex
100
AcDb2dVertex
 10
138.0023727151448
 20
-146.2358796701653
 30
0.0
  0
SEQEND
  5
16C
330
169
100
AcDbEntity
  8
Layer 1
 62
   243
420
 13980531
370
    70
  0
POLYLINE
  5
16D
330
41
100
AcDbEntity
  8
Layer 1
 62
   250
420
  2301728
370
   106
100
AcDb2dPolyline
 66
     1
 10
0.0
 20
0.0
 30
0.0
  0
VERTEX
  5
16E
330
16D
100
AcDbEntity
  8
Layer 1
 62
   250
420
  2301728
370
   106
100
AcDbVertex
100
AcDb2dVertex
 10
138.0023727151448
 20
-146.2358796701653
 30
0.0
  0
VERTEX
  5
16F
330
16D
100
AcDbEntity
  8
Layer 1
 62
   250
420
  2301728
370
   106
100
AcDbVertex
100
AcDb2dVertex
 10
138.0023727151448
 20
-150.1280323674944
 30
0.0
  0
SEQEND
  5
170
330
16D
100
AcDbEntity
  8
Layer 1
 62
   250
420
  2301728
370
   106
  0
POLYLINE
  5
171
330
41
100
AcDbEntity
  8
Layer 1
 62
   243
420
 13980531
370
    70
100
AcDb2dPolyline
 66
     1
 10
0.0
 20
0.0
 30
0.0
  0
VERTEX
  5
172
330
171
100
AcDbEntity
  8
Layer 1
 62
   243
420
 13980531
370
    70
100
AcDbVertex
100
AcDb2dVertex
 10
138.0023727151448
 20
-150.1280323674944
 30
0.0
  0
VERTEX
  5
173
330
171
100
AcDbEntity
  8
Layer 1
 62
   243
420
 13980531
370
    70
100
AcDbVertex
100
AcDb2dVertex
 10
138.0023727151448
 20
-154.0196633211732
 30
0.0
  0
SEQEND
  5
174
330
171
100
AcDbEntity
  8
Layer 1
 62
   243
420
 13980531
370
    70
  0
POLYLINE
  5
175
330
41
100
AcDbEntity
  8
Layer 1
 62
   250
420
  2301728
370
   106
100
AcDb2dPolyline
 66
     1
 10
0.0
 20
0.0
 30
0.0
  0
VERTEX
  5
176
330
175
100
AcDbEntity
  8
Layer 1
 62
   250
420
  2301728
370
   106
100
AcDbVertex
100
AcDb2dVertex
 10
138.0023727151448
 20
-154.0196633211732
 30
0.0
  0
VERTEX
  5
177
330
175
100
AcDbEntity
  8
Layer 1
 62
   250
420
  2301728
370
   106
100
AcDbVertex
100
AcDb2dVertex
 10
138.0023727151448
 20
-157.9115688767742
 30
0.0
  0
SEQEND
  5
178
330
175
100
AcDbEntity
  8
Layer 1
 62
   250
420
  2301728
370
   106
  0
POLYLINE
  5
179
330
41
100
AcDbEntity
  8
Layer 1
 62
   243
420
 13980531
370
    70
100
AcDb2dPolyline
 66
     1
 10
0.0
 20
0.0
 30
0.0
  0
VERTEX
  5
17A
330
179
100
AcDbEntity
  8
Layer 1
 62
   243
420
 13980531
370
    70
100
AcDbVertex
100
AcDb2dVertex
 10
138.0023727151448
 20
-157.9115688767742
 30
0.0
  0
VERTEX
  5
17B
330
179
100
AcDbEntity
  8
Layer 1
 62
   243
420
 13980531
370
    70
100
AcDbVertex
100
AcDb2dVertex
 10
138.0023727151448
 20
-161.8037215741024
 30
0.0
  0
SEQEND
  5
17C
330
179
100
AcDbEntity
  8
Layer 1
 62
   243
420
 13980531
370
    70
  0
POLYLINE
  5
17D
330
41
100
AcDbEntity
  8
Layer 1
 62
   250
420
  2301728
370
   106
100
AcDb2dPolyline
 66
     1
 10
0.0
 20
0.0
 30
0.0
  0
VERTEX
  5
17E
330
17D
100
AcDbEntity
  8
Layer 1
 62
   250
420
  2301728
370
   106
100
AcDbVertex
100
AcDb2dVertex
 10
138.0023727151448
 20
-161.8037215741024
 30
0.0
  0
VERTEX
  5
17F
330
17D
100
AcDbEntity
  8
Layer 1
 62
   250
420
  2301728
370
   106
100
AcDbVertex
100
AcDb2dVertex
 10
138.0023727151448
 20
-165.695599669511
 30
0.0
  0
SEQEND
  5
180
330
17D
100
AcDbEntity
  8
Layer 1
 62
   250
420
  2301728
370
   106
  0
POLYLINE
  5
181
330
41
100
AcDbEntity
  8
Layer 1
 62
   243
420
 13980531
370
    70
100
AcDb2dPolyline
 66
     1
 10
0.0
 20
0.0
 30
0.0
  0
VERTEX
  5
182
330
181
100
AcDbEntity
  8
Layer 1
 62
   243
420
 13980531
370
    70
100
AcDbVertex
100
AcDb2dVertex
 10
138.0023727151448
 20
-165.695599669511
 30
0.0
  0
VERTEX
  5
183
330
181
100
AcDbEntity
  8
Layer 1
 62
   243
420
 13980531
370
    70
100
AcDbVertex
100
AcDb2dVertex
 10
138.0023727151448
 20
-169.5880269687587
 30
0.0
  0
SEQEND
  5
184
330
181
100
AcDbEntity
  8
Layer 1
 62
   243
420
 13980531
370
    70
  0
POLYLINE
  5
185
330
41
100
AcDbEntity
  8
Layer 1
 62
   250
420
  2301728
370
   106
100
AcDb2dPolyline
 66
     1
 10
0.0
 20
0.0
 30
0.0
  0
VERTEX
  5
186
330
185
100
AcDbEntity
  8
Layer 1
 62
   250
420
  2301728
370
   106
100
AcDbVertex
100
AcDb2dVertex
 10
138.0023727151448
 20
-169.5880269687587
 30
0.0
  0
VERTEX
  5
187
330
185
100
AcDbEntity
  8
Layer 1
 62
   250
420
  2301728
370
   106
100
AcDbVertex
100
AcDb2dVertex
 10
138.0023727151448
 20
-173.4799325243597
 30
0.0
  0
SEQEND
  5
188
330
185
100
AcDbEntity
  8
Layer 1
 62
   250
420
  2301728
370
   106
  0
POLYLINE
  5
189
330
41
100
AcDbEntity
  8
Layer 1
 62
   243
420
 13980531
370
    70
100
AcDb2dPolyline
 66
     1
 10
0.0
 20
0.0
 30
0.0
  0
VERTEX
  5
18A
330
189
100
AcDbEntity
  8
Layer 1
 62
   243
420
 13980531
370
    70
100
AcDbVertex
100
AcDb2dVertex
 10
138.0023727151448
 20
-173.4799325243597
 30
0.0
  0
VERTEX
  5
18B
330
189
100
AcDbEntity
  8
Layer 1
 62
   243
420
 13980531
370
    70
100
AcDbVertex
100
AcDb2dVertex
 10
138.0023727151448
 20
-177.3715634780385
 30
0.0
  0
SEQEND
  5
18C
330
189
100
AcDbEntity
  8
Layer 1
 62
   243
420
 13980531
370
    70
  0
POLYLINE
  5
18D
330
41
100
AcDbEntity
  8
Layer 1
 62
   250
420
  2301728
370
   106
100
AcDb2dPolyline
 66
     1
 10
0.0
 20
0.0
 30
0.0
  0
VERTEX
  5
18E
330
18D
100
AcDbEntity
  8
Layer 1
 62
   250
420
  2301728
370
   106
100
AcDbVertex
100
AcDb2dVertex
 10
138.0023727151448
 20
-177.3715634780385
 30
0.0
  0
VERTEX
  5
18F
330
18D
100
AcDbEntity
  8
Layer 1
 62
   250
420
  2301728
370
   106
100
AcDbVertex
100
AcDb2dVertex
 10
138.0023727151448
 20
-181.263716175368
 30
0.0
  0
SEQEND
  5
190
330
18D
100
AcDbEntity
  8
Layer 1
 62
   250
420
  2301728
370
   106
  0
POLYLINE
  5
191
330
41
100
AcDbEntity
  8
Layer 1
 62
   243
420
 13980531
370
    70
100
AcDb2dPolyline
 66
     1
 10
0.0
 20
0.0
 30
0.0
  0
VERTEX
  5
192
330
191
100
AcDbEntity
  8
Layer 1
 62
   243
420
 13980531
370
    70
100
AcDbVertex
100
AcDb2dVertex
 10
138.0023727151448
 20
-181.263716175368
 30
0.0
  0
VERTEX
  5
193
330
191
100
AcDbEntity
  8
Layer 1
 62
   243
420
 13980531
370
    70
100
AcDbVertex
100
AcDb2dVertex
 10
138.0023727151448
 20
-185.1555942707753
 30
0.0
  0
SEQEND
  5
194
330
191
100
AcDbEntity
  8
Layer 1
 62
   243
420
 13980531
370
    70
  0
POLYLINE
  5
195
330
41
100
AcDbEntity
  8
Layer 1
 62
   250
420
  2301728
370
   106
100
AcDb2dPolyline
 66
     1
 10
0.0
 20
0.0
 30
0.0
  0
VERTEX
  5
196
330
195
100
AcDbEntity
  8
Layer 1
 62
   250
420
  2301728
370
   106
100
AcDbVertex
100
AcDb2dVertex
 10
138.0023727151448
 20
-185.1555942707753
 30
0.0
  0
VERTEX
  5
197
330
195
100
AcDbEntity
  8
Layer 1
 62
   250
420
  2301728
370
   106
100
AcDbVertex
100
AcDb2dVertex
 10
138.0023727151448
 20
-189.0477744282958
 30
0.0
  0
SEQEND
  5
198
330
195
100
AcDbEntity
  8
Layer 1
 62
   250
420
  2301728
370
   106
  0
POLYLINE
  5
199
330
41
100
AcDbEntity
  8
Layer 1
 62
   243
420
 13980531
370
    70
100
AcDb2dPolyline
 66
     1
 10
0.0
 20
0.0
 30
0.0
  0
VERTEX
  5
19A
330
199
100
AcDbEntity
  8
Layer 1
 62
   243
420
 13980531
370
    70
100
AcDbVertex
100
AcDb2dVertex
 10
138.0023727151448
 20
-189.0477744282958
 30
0.0
  0
VERTEX
  5
19B
330
199
100
AcDbEntity
  8
Layer 1
 62
   243
420
 13980531
370
    70
100
AcDbVertex
100
AcDb2dVertex
 10
138.0023727151448
 20
-192.939927125624
 30
0.0
  0
SEQEND
  5
19C
330
199
100
AcDbEntity
  8
Layer 1
 62
   243
420
 13980531
370
    70
  0
POLYLINE
  5
19D
330
41
100
AcDbEntity
  8
Layer 1
 62
   250
420
  2301728
370
   106
100
AcDb2dPolyline
 66
     1
 10
0.0
 20
0.0
 30
0.0
  0
VERTEX
  5
19E
330
19D
100
AcDbEntity
  8
Layer 1
 62
   250
420
  2301728
370
   106
100
AcDbVertex
100
AcDb2dVertex
 10
138.0023727151448
 20
-192.939927125624
 30
0.0
  0
VERTEX
  5
19F
330
19D
100
AcDbEntity
  8
Layer 1
 62
   250
420
  2301728
370
   106
100
AcDbVertex
100
AcDb2dVertex
 10
138.0023727151448
 20
-196.8318052210326
 30
0.0
  0
SEQEND
  5
1A0
330
19D
100
AcDbEntity
  8
Layer 1
 62
   250
420
  2301728
370
   106
  0
POLYLINE
  5
1A1
330
41
100
AcDbEntity
  8
Layer 1
 62
   243
420
 13980531
370
    70
100
AcDb2dPolyline
 66
     1
 10
0.0
 20
0.0
 30
0.0
  0
VERTEX
  5
1A2
330
1A1
100
AcDbEntity
  8
Layer 1
 62
   243
420
 13980531
370
    70
100
AcDbVertex
100
AcDb2dVertex
 10
138.0023727151448
 20
-196.8318052210326
 30
0.0
  0
VERTEX
  5
1A3
330
1A1
100
AcDbEntity
  8
Layer 1
 62
   243
420
 13980531
370
    70
100
AcDbVertex
100
AcDb2dVertex
 10
138.0023727151448
 20
-200.7237107766335
 30
0.0
  0
SEQEND
  5
1A4
330
1A1
100
AcDbEntity
  8
Layer 1
 62
   243
420
 13980531
370
    70
  0
POLYLINE
  5
1A5
330
41
100
AcDbEntity
  8
Layer 1
 62
   250
420
  2301728
370
   106
100
AcDb2dPolyline
 66
     1
 10
0.0
 20
0.0
 30
0.0
  0
VERTEX
  5
1A6
330
1A5
100
AcDbEntity
  8
Layer 1
 62
   250
420
  2301728
370
   106
100
AcDbVertex
100
AcDb2dVertex
 10
138.0023727151448
 20
-200.7237107766335
 30
0.0
  0
VERTEX
  5
1A7
330
1A5
100
AcDbEntity
  8
Layer 1
 62
   250
420
  2301728
370
   106
100
AcDbVertex
100
AcDb2dVertex
 10
138.0023727151448
 20
-204.6156163322332
 30
0.0
  0
SEQEND
  5
1A8
330
1A5
100
AcDbEntity
  8
Layer 1
 62
   250
420
  2301728
370
   106
  0
POLYLINE
  5
1A9
330
41
100
AcDbEntity
  8
Layer 1
 62
   243
420
 13980531
370
    70
100
AcDb2dPolyline
 66
     1
 10
0.0
 20
0.0
 30
0.0
  0
VERTEX
  5
1AA
330
1A9
100
AcDbEntity
  8
Layer 1
 62
   243
420
 13980531
370
    70
100
AcDbVertex
100
AcDb2dVertex
 10
138.0023727151448
 20
-204.6156163322332
 30
0.0
  0
VERTEX
  5
1AB
330
1A9
100
AcDbEntity
  8
Layer 1
 62
   243
420
 13980531
370
    70
100
AcDbVertex
100
AcDb2dVertex
 10
138.0023727151448
 20
-207.729547187555
 30
0.0
  0
SEQEND
  5
1AC
330
1A9
100
AcDbEntity
  8
Layer 1
 62
   243
420
 13980531
370
    70
  0
POLYLINE
  5
1AD
330
41
100
AcDbEntity
  8
Layer 1
 62
   250
420
  2301728
370
    70
100
AcDb2dPolyline
 66
     1
 10
0.0
 20
0.0
 30
0.0
  0
VERTEX
  5
1AE
330
1AD
100
AcDbEntity
  8
Layer 1
 62
   250
420
  2301728
370
    70
100
AcDbVertex
100
AcDb2dVertex
 10
136.4454072874839
 20
-209.2859908715678
 30
0.0
  0
VERTEX
  5
1AF
330
1AD
100
AcDbEntity
  8
Layer 1
 62
   250
420
  2301728
370
    70
100
AcDbVertex
100
AcDb2dVertex
 10
138.0023727151448
 20
-207.729547187555
 30
0.0
  0
SEQEND
  5
1B0
330
1AD
100
AcDbEntity
  8
Layer 1
 62
   250
420
  2301728
370
    70
  0
POLYLINE
  5
1B1
330
41
100
AcDbEntity
  8
Layer 1
 62
   250
420
  2301728
370
    70
100
AcDb2dPolyline
 66
     1
 10
0.0
 20
0.0
 30
0.0
  0
VERTEX
  5
1B2
330
1B1
100
AcDbEntity
  8
Layer 1
 62
   250
420
  2301728
370
    70
100
AcDbVertex
100
AcDb2dVertex
 10
136.4454072874839
 20
-209.2859908715678
 30
0.0
  0
VERTEX
  5
1B3
330
1B1
100
AcDbEntity
  8
Layer 1
 62
   250
420
  2301728
370
    70
100
AcDbVertex
100
AcDb2dVertex
 10
116.2069162422923
 20
-209.2859908715678
 30
0.0
  0
VERTEX
  5
1B4
330
1B1
100
AcDbEntity
  8
Layer 1
 62
   250
420
  2301728
370
    70
100
AcDbVertex
100
AcDb2dVertex
 10
114.6504725582802
 20
-207.729547187555
 30
0.0
  0
SEQEND
  5
1B5
330
1B1
100
AcDbEntity
  8
Layer 1
 62
   250
420
  2301728
370
    70
  0
POLYLINE
  5
1B6
330
41
100
AcDbEntity
  8
Layer 1
 62
   243
420
 13980531
370
    70
100
AcDb2dPolyline
 66
     1
 10
0.0
 20
0.0
 30
0.0
  0
VERTEX
  5
1B7
330
1B6
100
AcDbEntity
  8
Layer 1
 62
   243
420
 13980531
370
    70
100
AcDbVertex
100
AcDb2dVertex
 10
114.6504725582802
 20
-207.729547187555
 30
0.0
  0
VERTEX
  5
1B8
330
1B6
100
AcDbEntity
  8
Layer 1
 62
   243
420
 13980531
370
    70
100
AcDbVertex
100
AcDb2dVertex
 10
114.6504725582802
 20
-204.6156163322332
 30
0.0
  0
SEQEND
  5
1B9
330
1B6
100
AcDbEntity
  8
Layer 1
 62
   243
420
 13980531
370
    70
  0
POLYLINE
  5
1BA
330
41
100
AcDbEntity
  8
Layer 1
 62
   250
420
  2301728
370
   106
100
AcDb2dPolyline
 66
     1
 10
0.0
 20
0.0
 30
0.0
  0
VERTEX
  5
1BB
330
1BA
100
AcDbEntity
  8
Layer 1
 62
   250
420
  2301728
370
   106
100
AcDbVertex
100
AcDb2dVertex
 10
114.6504725582802
 20
-204.6156163322332
 30
0.0
  0
VERTEX
  5
1BC
330
1BA
100
AcDbEntity
  8
Layer 1
 62
   250
420
  2301728
370
   106
100
AcDbVertex
100
AcDb2dVertex
 10
114.6504725582802
 20
-200.7237107766335
 30
0.0
  0
SEQEND
  5
1BD
330
1BA
100
AcDbEntity
  8
Layer 1
 62
   250
420
  2301728
370
   106
  0
POLYLINE
  5
1BE
330
41
100
AcDbEntity
  8
Layer 1
 62
   243
420
 13980531
370
    70
100
AcDb2dPolyline
 66
     1
 10
0.0
 20
0.0
 30
0.0
  0
VERTEX
  5
1BF
330
1BE
100
AcDbEntity
  8
Layer 1
 62
   243
420
 13980531
370
    70
100
AcDbVertex
100
AcDb2dVertex
 10
114.6504725582802
 20
-200.7237107766335
 30
0.0
  0
VERTEX
  5
1C0
330
1BE
100
AcDbEntity
  8
Layer 1
 62
   243
420
 13980531
370
    70
100
AcDbVertex
100
AcDb2dVertex
 10
114.6504725582802
 20
-196.8318052210326
 30
0.0
  0
SEQEND
  5
1C1
330
1BE
100
AcDbEntity
  8
Layer 1
 62
   243
420
 13980531
370
    70
  0
POLYLINE
  5
1C2
330
41
100
AcDbEntity
  8
Layer 1
 62
   250
420
  2301728
370
   106
100
AcDb2dPolyline
 66
     1
 10
0.0
 20
0.0
 30
0.0
  0
VERTEX
  5
1C3
330
1C2
100
AcDbEntity
  8
Layer 1
 62
   250
420
  2301728
370
   106
100
AcDbVertex
100
AcDb2dVertex
 10
114.6504725582802
 20
-196.8318052210326
 30
0.0
  0
VERTEX
  5
1C4
330
1C2
100
AcDbEntity
  8
Layer 1
 62
   250
420
  2301728
370
   106
100
AcDbVertex
100
AcDb2dVertex
 10
114.6504725582802
 20
-192.939927125624
 30
0.0
  0
SEQEND
  5
1C5
330
1C2
100
AcDbEntity
  8
Layer 1
 62
   250
420
  2301728
370
   106
  0
POLYLINE
  5
1C6
330
41
100
AcDbEntity
  8
Layer 1
 62
   243
420
 13980531
370
    70
100
AcDb2dPolyline
 66
     1
 10
0.0
 20
0.0
 30
0.0
  0
VERTEX
  5
1C7
330
1C6
100
AcDbEntity
  8
Layer 1
 62
   243
420
 13980531
370
    70
100
AcDbVertex
100
AcDb2dVertex
 10
114.6504725582802
 20
-192.939927125624
 30
0.0
  0
VERTEX
  5
1C8
330
1C6
100
AcDbEntity
  8
Layer 1
 62
   243
420
 13980531
370
    70
100
AcDbVertex
100
AcDb2dVertex
 10
114.6504725582802
 20
-189.0477744282958
 30
0.0
  0
SEQEND
  5
1C9
330
1C6
100
AcDbEntity
  8
Layer 1
 62
   243
420
 13980531
370
    70
  0
POLYLINE
  5
1CA
330
41
100
AcDbEntity
  8
Layer 1
 62
   250
420
  2301728
370
   106
100
AcDb2dPolyline
 66
     1
 10
0.0
 20
0.0
 30
0.0
  0
VERTEX
  5
1CB
330
1CA
100
AcDbEntity
  8
Layer 1
 62
   250
420
  2301728
370
   106
100
AcDbVertex
100
AcDb2dVertex
 10
114.6504725582802
 20
-189.0477744282958
 30
0.0
  0
VERTEX
  5
1CC
330
1CA
100
AcDbEntity
  8
Layer 1
 62
   250
420
  2301728
370
   106
100
AcDbVertex
100
AcDb2dVertex
 10
114.6504725582802
 20
-185.1555942707753
 30
0.0
  0
SEQEND
  5
1CD
330
1CA
100
AcDbEntity
  8
Layer 1
 62
   250
420
  2301728
370
   106
  0
POLYLINE
  5
1CE
330
41
100
AcDbEntity
  8
Layer 1
 62
   243
420
 13980531
370
    70
100
AcDb2dPolyline
 66
     1
 10
0.0
 20
0.0
 30
0.0
  0
VERTEX
  5
1CF
330
1CE
100
AcDbEntity
  8
Layer 1
 62
   243
420
 13980531
370
    70
100
AcDbVertex
100
AcDb2dVertex
 10
114.6504725582802
 20
-185.1555942707753
 30
0.0
  0
VERTEX
  5
1D0
330
1CE
100
AcDbEntity
  8
Layer 1
 62
   243
420
 13980531
370
    70
100
AcDbVertex
100
AcDb2dVertex
 10
114.6504725582802
 20
-181.263716175368
 30
0.0
  0
SEQEND
  5
1D1
330
1CE
100
AcDbEntity
  8
Layer 1
 62
   243
420
 13980531
370
    70
  0
POLYLINE
  5
1D2
330
41
100
AcDbEntity
  8
Layer 1
 62
   250
420
  2301728
370
   106
100
AcDb2dPolyline
 66
     1
 10
0.0
 20
0.0
 30
0.0
  0
VERTEX
  5
1D3
330
1D2
100
AcDbEntity
  8
Layer 1
 62
   250
420
  2301728
370
   106
100
AcDbVertex
100
AcDb2dVertex
 10
114.6504725582802
 20
-181.263716175368
 30
0.0
  0
VERTEX
  5
1D4
330
1D2
100
AcDbEntity
  8
Layer 1
 62
   250
420
  2301728
370
   106
100
AcDbVertex
100
AcDb2dVertex
 10
114.6504725582802
 20
-177.3715634780385
 30
0.0
  0
SEQEND
  5
1D5
330
1D2
100
AcDbEntity
  8
Layer 1
 62
   250
420
  2301728
370
   106
  0
POLYLINE
  5
1D6
330
41
100
AcDbEntity
  8
Layer 1
 62
   243
420
 13980531
370
    70
100
AcDb2dPolyline
 66
     1
 10
0.0
 20
0.0
 30
0.0
  0
VERTEX
  5
1D7
330
1D6
100
AcDbEntity
  8
Layer 1
 62
   243
420
 13980531
370
    70
100
AcDbVertex
100
AcDb2dVertex
 10
114.6504725582802
 20
-177.3715634780385
 30
0.0
  0
VERTEX
  5
1D8
330
1D6
100
AcDbEntity
  8
Layer 1
 62
   243
420
 13980531
370
    70
100
AcDbVertex
100
AcDb2dVertex
 10
114.6504725582802
 20
-173.4799325243597
 30
0.0
  0
SEQEND
  5
1D9
330
1D6
100
AcDbEntity
  8
Layer 1
 62
   243
420
 13980531
370
    70
  0
POLYLINE
  5
1DA
330
41
100
AcDbEntity
  8
Layer 1
 62
   250
420
  2301728
370
   106
100
AcDb2dPolyline
 66
     1
 10
0.0
 20
0.0
 30
0.0
  0
VERTEX
  5
1DB
330
1DA
100
AcDbEntity
  8
Layer 1
 62
   250
420
  2301728
370
   106
100
AcDbVertex
100
AcDb2dVertex
 10
114.6504725582802
 20
-173.4799325243597
 30
0.0
  0
VERTEX
  5
1DC
330
1DA
100
AcDbEntity
  8
Layer 1
 62
   250
420
  2301728
370
   106
100
AcDbVertex
100
AcDb2dVertex
 10
114.6504725582802
 20
-169.5880269687587
 30
0.0
  0
SEQEND
  5
1DD
330
1DA
100
AcDbEntity
  8
Layer 1
 62
   250
420
  2301728
370
   106
  0
POLYLINE
  5
1DE
330
41
100
AcDbEntity
  8
Layer 1
 62
   243
420
 13980531
370
    70
100
AcDb2dPolyline
 66
     1
 10
0.0
 20
0.0
 30
0.0
  0
VERTEX
  5
1DF
330
1DE
100
AcDbEntity
  8
Layer 1
 62
   243
420
 13980531
370
    70
100
AcDbVertex
100
AcDb2dVertex
 10
114.6504725582802
 20
-169.5880269687587
 30
0.0
  0
VERTEX
  5
1E0
330
1DE
100
AcDbEntity
  8
Layer 1
 62
   243
420
 13980531
370
    70
100
AcDbVertex
100
AcDb2dVertex
 10
114.6504725582802
 20
-165.695599669511
 30
0.0
  0
SEQEND
  5
1E1
330
1DE
100
AcDbEntity
  8
Layer 1
 62
   243
420
 13980531
370
    70
  0
POLYLINE
  5
1E2
330
41
100
AcDbEntity
  8
Layer 1
 62
   250
420
  2301728
370
   106
100
AcDb2dPolyline
 66
     1
 10
0.0
 20
0.0
 30
0.0
  0
VERTEX
  5
1E3
330
1E2
100
AcDbEntity
  8
Layer 1
 62
   250
420
  2301728
370
   106
100
AcDbVertex
100
AcDb2dVertex
 10
114.6504725582802
 20
-165.695599669511
 30
0.0
  0
VERTEX
  5
1E4
330
1E2
100
AcDbEntity
  8
Layer 1
 62
   250
420
  2301728
370
   106
100
AcDbVertex
100
AcDb2dVertex
 10
114.6504725582802
 20
-161.8037215741024
 30
0.0
  0
SEQEND
  5
1E5
330
1E2
100
AcDbEntity
  8
Layer 1
 62
   250
420
  2301728
370
   106
  0
POLYLINE
  5
1E6
330
41
100
AcDbEntity
  8
Layer 1
 62
   243
420
 13980531
370
    70
100
AcDb2dPolyline
 66
     1
 10
0.0
 20
0.0
 30
0.0
  0
VERTEX
  5
1E7
330
1E6
100
AcDbEntity
  8
Layer 1
 62
   243
420
 13980531
370
    70
100
AcDbVertex
100
AcDb2dVertex
 10
114.6504725582802
 20
-161.8037215741024
 30
0.0
  0
VERTEX
  5
1E8
330
1E6
100
AcDbEntity
  8
Layer 1
 62
   243
420
 13980531
370
    70
100
AcDbVertex
100
AcDb2dVertex
 10
114.6504725582802
 20
-157.9115688767742
 30
0.0
  0
SEQEND
  5
1E9
330
1E6
100
AcDbEntity
  8
Layer 1
 62
   243
420
 13980531
370
    70
  0
POLYLINE
  5
1EA
330
41
100
AcDbEntity
  8
Layer 1
 62
   250
420
  2301728
370
   106
100
AcDb2dPolyline
 66
     1
 10
0.0
 20
0.0
 30
0.0
  0
VERTEX
  5
1EB
330
1EA
100
AcDbEntity
  8
Layer 1
 62
   250
420
  2301728
370
   106
100
AcDbVertex
100
AcDb2dVertex
 10
114.6504725582802
 20
-157.9115688767742
 30
0.0
  0
VERTEX
  5
1EC
330
1EA
100
AcDbEntity
  8
Layer 1
 62
   250
420
  2301728
370
   106
100
AcDbVertex
100
AcDb2dVertex
 10
114.6504725582802
 20
-154.0196633211732
 30
0.0
  0
SEQEND
  5
1ED
330
1EA
100
AcDbEntity
  8
Layer 1
 62
   250
420
  2301728
370
   106
  0
POLYLINE
  5
1EE
330
41
100
AcDbEntity
  8
Layer 1
 62
   243
420
 13980531
370
    70
100
AcDb2dPolyline
 66
     1
 10
0.0
 20
0.0
 30
0.0
  0
VERTEX
  5
1EF
330
1EE
100
AcDbEntity
  8
Layer 1
 62
   243
420
 13980531
370
    70
100
AcDbVertex
100
AcDb2dVertex
 10
114.6504725582802
 20
-154.0196633211732
 30
0.0
  0
VERTEX
  5
1F0
330
1EE
100
AcDbEntity
  8
Layer 1
 62
   243
420
 13980531
370
    70
100
AcDbVertex
100
AcDb2dVertex
 10
114.6504725582802
 20
-150.1280323674944
 30
0.0
  0
SEQEND
  5
1F1
330
1EE
100
AcDbEntity
  8
Layer 1
 62
   243
420
 13980531
370
    70
  0
POLYLINE
  5
1F2
330
41
100
AcDbEntity
  8
Layer 1
 62
   250
420
  2301728
370
   106
100
AcDb2dPolyline
 66
     1
 10
0.0
 20
0.0
 30
0.0
  0
VERTEX
  5
1F3
330
1F2
100
AcDbEntity
  8
Layer 1
 62
   250
420
  2301728
370
   106
100
AcDbVertex
100
AcDb2dVertex
 10
114.6504725582802
 20
-150.1280323674944
 30
0.0
  0
VERTEX
  5
1F4
330
1F2
100
AcDbEntity
  8
Layer 1
 62
   250
420
  2301728
370
   106
100
AcDbVertex
100
AcDb2dVertex
 10
114.6504725582802
 20
-146.2358796701653
 30
0.0
  0
SEQEND
  5
1F5
330
1F2
100
AcDbEntity
  8
Layer 1
 62
   250
420
  2301728
370
   106
  0
POLYLINE
  5
1F6
330
41
100
AcDbEntity
  8
Layer 1
 62
   243
420
 13980531
370
    70
100
AcDb2dPolyline
 66
     1
 10
0.0
 20
0.0
 30
0.0
  0
VERTEX
  5
1F7
330
1F6
100
AcDbEntity
  8
Layer 1
 62
   243
420
 13980531
370
    70
100
AcDbVertex
100
AcDb2dVertex
 10
114.6504725582802
 20
-146.2358796701653
 30
0.0
  0
VERTEX
  5
1F8
330
1F6
100
AcDbEntity
  8
Layer 1
 62
   243
420
 13980531
370
    70
100
AcDbVertex
100
AcDb2dVertex
 10
114.6504725582802
 20
-142.3439741145656
 30
0.0
  0
SEQEND
  5
1F9
330
1F6
100
AcDbEntity
  8
Layer 1
 62
   243
420
 13980531
370
    70
  0
POLYLINE
  5
1FA
330
41
100
AcDbEntity
  8
Layer 1
 62
   250
420
  2301728
370
   106
100
AcDb2dPolyline
 66
     1
 10
0.0
 20
0.0
 30
0.0
  0
VERTEX
  5
1FB
330
1FA
100
AcDbEntity
  8
Layer 1
 62
   250
420
  2301728
370
   106
100
AcDbVertex
100
AcDb2dVertex
 10
114.6504725582802
 20
-142.3439741145656
 30
0.0
  0
VERTEX
  5
1FC
330
1FA
100
AcDbEntity
  8
Layer 1
 62
   250
420
  2301728
370
   106
100
AcDbVertex
100
AcDb2dVertex
 10
114.6504725582802
 20
-138.4515468153166
 30
0.0
  0
SEQEND
  5
1FD
330
1FA
100
AcDbEntity
  8
Layer 1
 62
   250
420
  2301728
370
   106
  0
POLYLINE
  5
1FE
330
41
100
AcDbEntity
  8
Layer 1
 62
   243
420
 13980531
370
    70
100
AcDb2dPolyline
 66
     1
 10
0.0
 20
0.0
 30
0.0
  0
VERTEX
  5
1FF
330
1FE
100
AcDbEntity
  8
Layer 1
 62
   243
420
 13980531
370
    70
100
AcDbVertex
100
AcDb2dVertex
 10
114.6504725582802
 20
-138.4515468153166
 30
0.0
  0
VERTEX
  5
200
330
1FE
100
AcDbEntity
  8
Layer 1
 62
   243
420
 13980531
370
    70
100
AcDbVertex
100
AcDb2dVertex
 10
114.6504725582802
 20
-134.5596687199086
 30
0.0
  0
SEQEND
  5
201
330
1FE
100
AcDbEntity
  8
Layer 1
 62
   243
420
 13980531
370
    70
  0
POLYLINE
  5
202
330
41
100
AcDbEntity
  8
Layer 1
 62
   250
420
  2301728
370
   106
100
AcDb2dPolyline
 66
     1
 10
0.0
 20
0.0
 30
0.0
  0
VERTEX
  5
203
330
202
100
AcDbEntity
  8
Layer 1
 62
   250
420
  2301728
370
   106
100
AcDbVertex
100
AcDb2dVertex
 10
114.6504725582802
 20
-134.5596687199086
 30
0.0
  0
VERTEX
  5
204
330
202
100
AcDbEntity
  8
Layer 1
 62
   250
420
  2301728
370
   106
100
AcDbVertex
100
AcDb2dVertex
 10
114.6504725582802
 20
-130.6680377662285
 30
0.0
  0
SEQEND
  5
205
330
202
100
AcDbEntity
  8
Layer 1
 62
   250
420
  2301728
370
   106
  0
POLYLINE
  5
206
330
41
100
AcDbEntity
  8
Layer 1
 62
   243
420
 13980531
370
    70
100
AcDb2dPolyline
 66
     1
 10
0.0
 20
0.0
 30
0.0
  0
VERTEX
  5
207
330
206
100
AcDbEntity
  8
Layer 1
 62
   243
420
 13980531
370
    70
100
AcDbVertex
100
AcDb2dVertex
 10
114.6504725582802
 20
-130.6680377662285
 30
0.0
  0
VERTEX
  5
208
330
206
100
AcDbEntity
  8
Layer 1
 62
   243
420
 13980531
370
    70
100
AcDbVertex
100
AcDb2dVertex
 10
114.6504725582802
 20
-126.7756104669795
 30
0.0
  0
SEQEND
  5
209
330
206
100
AcDbEntity
  8
Layer 1
 62
   243
420
 13980531
370
    70
  0
POLYLINE
  5
20A
330
41
100
AcDbEntity
  8
Layer 1
 62
   250
420
  2301728
370
   106
100
AcDb2dPolyline
 66
     1
 10
0.0
 20
0.0
 30
0.0
  0
VERTEX
  5
20B
330
20A
100
AcDbEntity
  8
Layer 1
 62
   250
420
  2301728
370
   106
100
AcDbVertex
100
AcDb2dVertex
 10
114.6504725582802
 20
-126.7756104669795
 30
0.0
  0
VERTEX
  5
20C
330
20A
100
AcDbEntity
  8
Layer 1
 62
   250
420
  2301728
370
   106
100
AcDbVertex
100
AcDb2dVertex
 10
114.6504725582802
 20
-122.8839795133
 30
0.0
  0
SEQEND
  5
20D
330
20A
100
AcDbEntity
  8
Layer 1
 62
   250
420
  2301728
370
   106
  0
POLYLINE
  5
20E
330
41
100
AcDbEntity
  8
Layer 1
 62
   243
420
 13980531
370
    70
100
AcDb2dPolyline
 66
     1
 10
0.0
 20
0.0
 30
0.0
  0
VERTEX
  5
20F
330
20E
100
AcDbEntity
  8
Layer 1
 62
   243
420
 13980531
370
    70
100
AcDbVertex
100
AcDb2dVertex
 10
114.6504725582802
 20
-122.8839795133
 30
0.0
  0
VERTEX
  5
210
330
20E
100
AcDbEntity
  8
Layer 1
 62
   243
420
 13980531
370
    70
100
AcDbVertex
100
AcDb2dVertex
 10
114.6504725582802
 20
-119.7703232598985
 30
0.0
  0
SEQEND
  5
211
330
20E
100
AcDbEntity
  8
Layer 1
 62
   243
420
 13980531
370
    70
  0
POLYLINE
  5
212
330
41
100
AcDbEntity
  8
Layer 1
 62
   250
420
  2301728
370
    70
100
AcDb2dPolyline
 66
     1
 10
0.0
 20
0.0
 30
0.0
  0
VERTEX
  5
213
330
212
100
AcDbEntity
  8
Layer 1
 62
   250
420
  2301728
370
    70
100
AcDbVertex
100
AcDb2dVertex
 10
138.0023727151448
 20
-207.729547187555
 30
0.0
  0
VERTEX
  5
214
330
212
100
AcDbEntity
  8
Layer 1
 62
   250
420
  2301728
370
    70
100
AcDbVertex
100
AcDb2dVertex
 10
126.3264363668089
 20
-196.0536108392185
 30
0.0
  0
SEQEND
  5
215
330
212
100
AcDbEntity
  8
Layer 1
 62
   250
420
  2301728
370
    70
  0
POLYLINE
  5
216
330
41
100
AcDbEntity
  8
Layer 1
 62
   250
420
  2301728
370
    70
100
AcDb2dPolyline
 66
     1
 10
0.0
 20
0.0
 30
0.0
  0
VERTEX
  5
217
330
216
100
AcDbEntity
  8
Layer 1
 62
   250
420
  2301728
370
    70
100
AcDbVertex
100
AcDb2dVertex
 10
114.6504725582802
 20
-207.729547187555
 30
0.0
  0
VERTEX
  5
218
330
216
100
AcDbEntity
  8
Layer 1
 62
   250
420
  2301728
370
    70
100
AcDbVertex
100
AcDb2dVertex
 10
126.3264363668089
 20
-196.0536108392185
 30
0.0
  0
SEQEND
  5
219
330
216
100
AcDbEntity
  8
Layer 1
 62
   250
420
  2301728
370
    70
  0
POLYLINE
  5
21A
330
41
100
AcDbEntity
  8
Layer 1
 62
   250
420
  2301728
370
    70
100
AcDb2dPolyline
 66
     1
 10
0.0
 20
0.0
 30
0.0
  0
VERTEX
  5
21B
330
21A
100
AcDbEntity
  8
Layer 1
 62
   250
420
  2301728
370
    70
100
AcDbVertex
100
AcDb2dVertex
 10
138.0023727151448
 20
-119.7703232598985
 30
0.0
  0
VERTEX
  5
21C
330
21A
100
AcDbEntity
  8
Layer 1
 62
   250
420
  2301728
370
    70
100
AcDbVertex
100
AcDb2dVertex
 10
114.6504725582802
 20
-119.7703232598985
 30
0.0
  0
SEQEND
  5
21D
330
21A
100
AcDbEntity
  8
Layer 1
 62
   250
420
  2301728
370
    70
  0
POLYLINE
  5
21E
330
41
100
AcDbEntity
  8
Layer 1
 62
   250
420
  2301728
370
    70
100
AcDb2dPolyline
 66
     1
 10
0.0
 20
0.0
 30
0.0
  0
VERTEX
  5
21F
330
21E
100
AcDbEntity
  8
Layer 1
 62
   250
420
  2301728
370
    70
100
AcDbVertex
100
AcDb2dVertex
 10
126.3264363668089
 20
-119.7703232598985
 30
0.0
  0
VERTEX
  5
220
330
21E
100
AcDbEntity
  8
Layer 1
 62
   250
420
  2301728
370
    70
100
AcDbVertex
100
AcDb2dVertex
 10
126.3264363668089
 20
-196.0536108392185
 30
0.0
  0
SEQEND
  5
221
330
21E
100
AcDbEntity
  8
Layer 1
 62
   250
420
  2301728
370
    70
  0
SPLINE
  5
222
330
41
100
AcDbEntity
  8
Layer 1
 62
   250
420
  2301728
370
    70
100
AcDbSpline
210
0.0
220
0.0
230
1.0
 70
     8
 71
     3
 72
    14
 73
    10
 74
     0
 42
0.0000000001
 43
0.0000000001
 12
1.0
 22
0.0
 32
0.0
 13
1.0
 23
0.0
 33
0.0
 40
0.0
 40
0.0
 40
0.0
 40
0.0
 40
1.0
 40
1.0
 40
1.0
 40
2.0
 40
2.0
 40
2.0
 40
3.0
 40
3.0
 40
3.0
 40
3.0
 10
79.62263605307781
 20
-104.2022067540415
 30
0.0
 10
79.62263605307781
 20
-104.2022067540415
 30
0.0
 10
46.93001427773511
 20
-104.2022067540415
 30
0.0
 10
46.93001427773511
 20
-104.2022067540415
 30
0.0
 10
46.93001427773511
 20
-104.2022067540415
 30
0.0
 10
46.93001427773511
 20
-109.6508031353825
 30
0.0
 10
46.93001427773511
 20
-109.6508031353825
 30
0.0
 10
46.92545588585891
 20
-110.9449745253575
 30
0.0
 10
45.8889709378518
 20
-111.9819812170134
 30
0.0
 10
44.59482700806782
 20
-111.9859904050498
 30
0.0
  0
SPLINE
  5
223
330
41
100
AcDbEntity
  8
Layer 1
 62
   250
420
  2301728
370
    70
100
AcDbSpline
210
0.0
220
0.0
230
1.0
 70
     8
 71
     3
 72
    14
 73
    10
 74
     0
 42
0.0000000001
 43
0.0000000001
 12
1.0
 22
0.0
 32
0.0
 13
1.0
 23
0.0
 33
0.0
 40
0.0
 40
0.0
 40
0.0
 40
0.0
 40
1.0
 40
1.0
 40
1.0
 40
2.0
 40
2.0
 40
2.0
 40
3.0
 40
3.0
 40
3.0
 40
3.0
 10
79.62263605307781
 20
-104.2022067540415
 30
0.0
 10
79.62263605307781
 20
-104.2022067540415
 30
0.0
 10
79.62263605307781
 20
-109.6508031353825
 30
0.0
 10
79.62263605307781
 20
-109.6508031353825
 30
0.0
 10
79.62639809938572
 20
-110.9449745253575
 30
0.0
 10
80.66367939296177
 20
-111.9819812170134
 30
0.0
 10
81.95785078293746
 20
-111.9859904050498
 30
0.0
 10
81.95785078293746
 20
-111.9859904050498
 30
0.0
 10
87.79528348336142
 20
-111.9859904050498
 30
0.0
 10
87.79528348336142
 20
-111.9859904050498
 30
0.0
  0
SPLINE
  5
224
330
41
100
AcDbEntity
  8
Layer 1
 62
   250
420
  2301728
370
    70
100
AcDbSpline
210
0.0
220
0.0
230
1.0
 70
     8
 71
     3
 72
    17
 73
    13
 74
     0
 42
0.0000000001
 43
0.0000000001
 12
1.0
 22
0.0
 32
0.0
 13
1.0
 23
0.0
 33
0.0
 40
0.0
 40
0.0
 40
0.0
 40
0.0
 40
1.0
 40
1.0
 40
1.0
 40
2.0
 40
2.0
 40
2.0
 40
3.0
 40
3.0
 40
3.0
 40
4.0
 40
4.0
 40
4.0
 40
4.0
 10
44.59482700806782
 20
-111.9859904050498
 30
0.0
 10
44.59482700806782
 20
-111.9859904050498
 30
0.0
 10
38.75657050188321
 20
-111.9859904050498
 30
0.0
 10
38.75657050188321
 20
-111.9859904050498
 30
0.0
 10
38.75657050188321
 20
-111.9859904050498
 30
0.0
 10
38.75657050188321
 20
-115.8781431023773
 30
0.0
 10
38.75657050188321
 20
-115.8781431023773
 30
0.0
 10
38.75657050188321
 20
-115.8781431023773
 30
0.0
 10
47.70820865954981
 20
-115.8781431023773
 30
0.0
 10
47.70820865954981
 20
-115.8781431023773
 30
0.0
 10
49.86482230047424
 20
-115.8848708494242
 30
0.0
 10
51.59341392829496
 20
-117.6134624772449
 30
0.0
 10
51.60038881706969
 20
-119.7703232598985
 30
0.0
  0
SPLINE
  5
225
330
41
100
AcDbEntity
  8
Layer 1
 62
   250
420
  2301728
370
    70
100
AcDbSpline
210
0.0
220
0.0
230
1.0
 70
     8
 71
     3
 72
    14
 73
    10
 74
     0
 42
0.0000000001
 43
0.0000000001
 12
1.0
 22
0.0
 32
0.0
 13
1.0
 23
0.0
 33
0.0
 40
0.0
 40
0.0
 40
0.0
 40
0.0
 40
1.0
 40
1.0
 40
1.0
 40
2.0
 40
2.0
 40
2.0
 40
3.0
 40
3.0
 40
3.0
 40
3.0
 10
87.79528348336142
 20
-111.9859904050498
 30
0.0
 10
87.79528348336142
 20
-111.9859904050498
 30
0.0
 10
87.79528348336142
 20
-115.8781431023773
 30
0.0
 10
87.79528348336142
 20
-115.8781431023773
 30
0.0
 10
87.79528348336142
 20
-115.8781431023773
 30
0.0
 10
78.84444167126377
 20
-115.8781431023773
 30
0.0
 10
78.84444167126377
 20
-115.8781431023773
 30
0.0
 10
76.6873062866906
 20
-115.8848708494242
 30
0.0
 10
74.95871465886924
 20
-117.6134624772449
 30
0.0
 10
74.95226151374324
 20
-119.7703232598985
 30
0.0
  0
POLYLINE
  5
226
330
41
100
AcDbEntity
  8
Layer 1
 62
   243
420
 13980531
370
    70
100
AcDb2dPolyline
 66
     1
 10
0.0
 20
0.0
 30
0.0
  0
VERTEX
  5
227
330
226
100
AcDbEntity
  8
Layer 1
 62
   243
420
 13980531
370
    70
100
AcDbVertex
100
AcDb2dVertex
 10
74.95226151374324
 20
-119.7703232598985
 30
0.0
  0
VERTEX
  5
228
330
226
100
AcDbEntity
  8
Layer 1
 62
   243
420
 13980531
370
    70
100
AcDbVertex
100
AcDb2dVertex
 10
74.95226151374324
 20
-122.8839795133
 30
0.0
  0
SEQEND
  5
229
330
226
100
AcDbEntity
  8
Layer 1
 62
   243
420
 13980531
370
    70
  0
POLYLINE
  5
22A
330
41
100
AcDbEntity
  8
Layer 1
 62
   250
420
  2301728
370
   106
100
AcDb2dPolyline
 66
     1
 10
0.0
 20
0.0
 30
0.0
  0
VERTEX
  5
22B
330
22A
100
AcDbEntity
  8
Layer 1
 62
   250
420
  2301728
370
   106
100
AcDbVertex
100
AcDb2dVertex
 10
74.95226151374324
 20
-122.8839795133
 30
0.0
  0
VERTEX
  5
22C
330
22A
100
AcDbEntity
  8
Layer 1
 62
   250
420
  2301728
370
   106
100
AcDbVertex
100
AcDb2dVertex
 10
74.95226151374324
 20
-126.7756104669795
 30
0.0
  0
SEQEND
  5
22D
330
22A
100
AcDbEntity
  8
Layer 1
 62
   250
420
  2301728
370
   106
  0
POLYLINE
  5
22E
330
41
100
AcDbEntity
  8
Layer 1
 62
   243
420
 13980531
370
    70
100
AcDb2dPolyline
 66
     1
 10
0.0
 20
0.0
 30
0.0
  0
VERTEX
  5
22F
330
22E
100
AcDbEntity
  8
Layer 1
 62
   243
420
 13980531
370
    70
100
AcDbVertex
100
AcDb2dVertex
 10
74.95226151374324
 20
-126.7756104669795
 30
0.0
  0
VERTEX
  5
230
330
22E
100
AcDbEntity
  8
Layer 1
 62
   243
420
 13980531
370
    70
100
AcDbVertex
100
AcDb2dVertex
 10
74.95226151374324
 20
-130.6680377662285
 30
0.0
  0
SEQEND
  5
231
330
22E
100
AcDbEntity
  8
Layer 1
 62
   243
420
 13980531
370
    70
  0
POLYLINE
  5
232
330
41
100
AcDbEntity
  8
Layer 1
 62
   250
420
  2301728
370
   106
100
AcDb2dPolyline
 66
     1
 10
0.0
 20
0.0
 30
0.0
  0
VERTEX
  5
233
330
232
100
AcDbEntity
  8
Layer 1
 62
   250
420
  2301728
370
   106
100
AcDbVertex
100
AcDb2dVertex
 10
74.95226151374324
 20
-130.6680377662285
 30
0.0
  0
VERTEX
  5
234
330
232
100
AcDbEntity
  8
Layer 1
 62
   250
420
  2301728
370
   106
100
AcDbVertex
100
AcDb2dVertex
 10
74.95226151374324
 20
-134.5596687199086
 30
0.0
  0
SEQEND
  5
235
330
232
100
AcDbEntity
  8
Layer 1
 62
   250
420
  2301728
370
   106
  0
POLYLINE
  5
236
330
41
100
AcDbEntity
  8
Layer 1
 62
   243
420
 13980531
370
    70
100
AcDb2dPolyline
 66
     1
 10
0.0
 20
0.0
 30
0.0
  0
VERTEX
  5
237
330
236
100
AcDbEntity
  8
Layer 1
 62
   243
420
 13980531
370
    70
100
AcDbVertex
100
AcDb2dVertex
 10
74.95226151374324
 20
-134.5596687199086
 30
0.0
  0
VERTEX
  5
238
330
236
100
AcDbEntity
  8
Layer 1
 62
   243
420
 13980531
370
    70
100
AcDbVertex
100
AcDb2dVertex
 10
74.95226151374324
 20
-138.4515468153166
 30
0.0
  0
SEQEND
  5
239
330
236
100
AcDbEntity
  8
Layer 1
 62
   243
420
 13980531
370
    70
  0
POLYLINE
  5
23A
330
41
100
AcDbEntity
  8
Layer 1
 62
   250
420
  2301728
370
   106
100
AcDb2dPolyline
 66
     1
 10
0.0
 20
0.0
 30
0.0
  0
VERTEX
  5
23B
330
23A
100
AcDbEntity
  8
Layer 1
 62
   250
420
  2301728
370
   106
100
AcDbVertex
100
AcDb2dVertex
 10
74.95226151374324
 20
-138.4515468153166
 30
0.0
  0
VERTEX
  5
23C
330
23A
100
AcDbEntity
  8
Layer 1
 62
   250
420
  2301728
370
   106
100
AcDbVertex
100
AcDb2dVertex
 10
74.95226151374324
 20
-142.3439741145656
 30
0.0
  0
SEQEND
  5
23D
330
23A
100
AcDbEntity
  8
Layer 1
 62
   250
420
  2301728
370
   106
  0
POLYLINE
  5
23E
330
41
100
AcDbEntity
  8
Layer 1
 62
   243
420
 13980531
370
    70
100
AcDb2dPolyline
 66
     1
 10
0.0
 20
0.0
 30
0.0
  0
VERTEX
  5
23F
330
23E
100
AcDbEntity
  8
Layer 1
 62
   243
420
 13980531
370
    70
100
AcDbVertex
100
AcDb2dVertex
 10
74.95226151374324
 20
-142.3439741145656
 30
0.0
  0
VERTEX
  5
240
330
23E
100
AcDbEntity
  8
Layer 1
 62
   243
420
 13980531
370
    70
100
AcDbVertex
100
AcDb2dVertex
 10
74.95226151374324
 20
-146.2358796701653
 30
0.0
  0
SEQEND
  5
241
330
23E
100
AcDbEntity
  8
Layer 1
 62
   243
420
 13980531
370
    70
  0
POLYLINE
  5
242
330
41
100
AcDbEntity
  8
Layer 1
 62
   250
420
  2301728
370
   106
100
AcDb2dPolyline
 66
     1
 10
0.0
 20
0.0
 30
0.0
  0
VERTEX
  5
243
330
242
100
AcDbEntity
  8
Layer 1
 62
   250
420
  2301728
370
   106
100
AcDbVertex
100
AcDb2dVertex
 10
74.95226151374324
 20
-146.2358796701653
 30
0.0
  0
VERTEX
  5
244
330
242
100
AcDbEntity
  8
Layer 1
 62
   250
420
  2301728
370
   106
100
AcDbVertex
100
AcDb2dVertex
 10
74.95226151374324
 20
-150.1280323674944
 30
0.0
  0
SEQEND
  5
245
330
242
100
AcDbEntity
  8
Layer 1
 62
   250
420
  2301728
370
   106
  0
POLYLINE
  5
246
330
41
100
AcDbEntity
  8
Layer 1
 62
   243
420
 13980531
370
    70
100
AcDb2dPolyline
 66
     1
 10
0.0
 20
0.0
 30
0.0
  0
VERTEX
  5
247
330
246
100
AcDbEntity
  8
Layer 1
 62
   243
420
 13980531
370
    70
100
AcDbVertex
100
AcDb2dVertex
 10
74.95226151374324
 20
-150.1280323674944
 30
0.0
  0
VERTEX
  5
248
330
246
100
AcDbEntity
  8
Layer 1
 62
   243
420
 13980531
370
    70
100
AcDbVertex
100
AcDb2dVertex
 10
74.95226151374324
 20
-154.0196633211732
 30
0.0
  0
SEQEND
  5
249
330
246
100
AcDbEntity
  8
Layer 1
 62
   243
420
 13980531
370
    70
  0
POLYLINE
  5
24A
330
41
100
AcDbEntity
  8
Layer 1
 62
   250
420
  2301728
370
   106
100
AcDb2dPolyline
 66
     1
 10
0.0
 20
0.0
 30
0.0
  0
VERTEX
  5
24B
330
24A
100
AcDbEntity
  8
Layer 1
 62
   250
420
  2301728
370
   106
100
AcDbVertex
100
AcDb2dVertex
 10
74.95226151374324
 20
-154.0196633211732
 30
0.0
  0
VERTEX
  5
24C
330
24A
100
AcDbEntity
  8
Layer 1
 62
   250
420
  2301728
370
   106
100
AcDbVertex
100
AcDb2dVertex
 10
74.95226151374324
 20
-157.9115688767742
 30
0.0
  0
SEQEND
  5
24D
330
24A
100
AcDbEntity
  8
Layer 1
 62
   250
420
  2301728
370
   106
  0
POLYLINE
  5
24E
330
41
100
AcDbEntity
  8
Layer 1
 62
   243
420
 13980531
370
    70
100
AcDb2dPolyline
 66
     1
 10
0.0
 20
0.0
 30
0.0
  0
VERTEX
  5
24F
330
24E
100
AcDbEntity
  8
Layer 1
 62
   243
420
 13980531
370
    70
100
AcDbVertex
100
AcDb2dVertex
 10
74.95226151374324
 20
-157.9115688767742
 30
0.0
  0
VERTEX
  5
250
330
24E
100
AcDbEntity
  8
Layer 1
 62
   243
420
 13980531
370
    70
100
AcDbVertex
100
AcDb2dVertex
 10
74.95226151374324
 20
-161.8037215741024
 30
0.0
  0
SEQEND
  5
251
330
24E
100
AcDbEntity
  8
Layer 1
 62
   243
420
 13980531
370
    70
  0
POLYLINE
  5
252
330
41
100
AcDbEntity
  8
Layer 1
 62
   250
420
  2301728
370
   106
100
AcDb2dPolyline
 66
     1
 10
0.0
 20
0.0
 30
0.0
  0
VERTEX
  5
253
330
252
100
AcDbEntity
  8
Layer 1
 62
   250
420
  2301728
370
   106
100
AcDbVertex
100
AcDb2dVertex
 10
74.95226151374324
 20
-161.8037215741024
 30
0.0
  0
VERTEX
  5
254
330
252
100
AcDbEntity
  8
Layer 1
 62
   250
420
  2301728
370
   106
100
AcDbVertex
100
AcDb2dVertex
 10
74.95226151374324
 20
-165.695599669511
 30
0.0
  0
SEQEND
  5
255
330
252
100
AcDbEntity
  8
Layer 1
 62
   250
420
  2301728
370
   106
  0
POLYLINE
  5
256
330
41
100
AcDbEntity
  8
Layer 1
 62
   243
420
 13980531
370
    70
100
AcDb2dPolyline
 66
     1
 10
0.0
 20
0.0
 30
0.0
  0
VERTEX
  5
257
330
256
100
AcDbEntity
  8
Layer 1
 62
   243
420
 13980531
370
    70
100
AcDbVertex
100
AcDb2dVertex
 10
74.95226151374324
 20
-165.695599669511
 30
0.0
  0
VERTEX
  5
258
330
256
100
AcDbEntity
  8
Layer 1
 62
   243
420
 13980531
370
    70
100
AcDbVertex
100
AcDb2dVertex
 10
74.95226151374324
 20
-169.5880269687587
 30
0.0
  0
SEQEND
  5
259
330
256
100
AcDbEntity
  8
Layer 1
 62
   243
420
 13980531
370
    70
  0
POLYLINE
  5
25A
330
41
100
AcDbEntity
  8
Layer 1
 62
   250
420
  2301728
370
   106
100
AcDb2dPolyline
 66
     1
 10
0.0
 20
0.0
 30
0.0
  0
VERTEX
  5
25B
330
25A
100
AcDbEntity
  8
Layer 1
 62
   250
420
  2301728
370
   106
100
AcDbVertex
100
AcDb2dVertex
 10
74.95226151374324
 20
-169.5880269687587
 30
0.0
  0
VERTEX
  5
25C
330
25A
100
AcDbEntity
  8
Layer 1
 62
   250
420
  2301728
370
   106
100
AcDbVertex
100
AcDb2dVertex
 10
74.95226151374324
 20
-173.4799325243597
 30
0.0
  0
SEQEND
  5
25D
330
25A
100
AcDbEntity
  8
Layer 1
 62
   250
420
  2301728
370
   106
  0
POLYLINE
  5
25E
330
41
100
AcDbEntity
  8
Layer 1
 62
   243
420
 13980531
370
    70
100
AcDb2dPolyline
 66
     1
 10
0.0
 20
0.0
 30
0.0
  0
VERTEX
  5
25F
330
25E
100
AcDbEntity
  8
Layer 1
 62
   243
420
 13980531
370
    70
100
AcDbVertex
100
AcDb2dVertex
 10
74.95226151374324
 20
-173.4799325243597
 30
0.0
  0
VERTEX
  5
260
330
25E
100
AcDbEntity
  8
Layer 1
 62
   243
420
 13980531
370
    70
100
AcDbVertex
100
AcDb2dVertex
 10
74.95226151374324
 20
-177.3715634780385
 30
0.0
  0
SEQEND
  5
261
330
25E
100
AcDbEntity
  8
Layer 1
 62
   243
420
 13980531
370
    70
  0
POLYLINE
  5
262
330
41
100
AcDbEntity
  8
Layer 1
 62
   250
420
  2301728
370
   106
100
AcDb2dPolyline
 66
     1
 10
0.0
 20
0.0
 30
0.0
  0
VERTEX
  5
263
330
262
100
AcDbEntity
  8
Layer 1
 62
   250
420
  2301728
370
   106
100
AcDbVertex
100
AcDb2dVertex
 10
74.95226151374324
 20
-177.3715634780385
 30
0.0
  0
VERTEX
  5
264
330
262
100
AcDbEntity
  8
Layer 1
 62
   250
420
  2301728
370
   106
100
AcDbVertex
100
AcDb2dVertex
 10
74.95226151374324
 20
-181.263716175368
 30
0.0
  0
SEQEND
  5
265
330
262
100
AcDbEntity
  8
Layer 1
 62
   250
420
  2301728
370
   106
  0
POLYLINE
  5
266
330
41
100
AcDbEntity
  8
Layer 1
 62
   243
420
 13980531
370
    70
100
AcDb2dPolyline
 66
     1
 10
0.0
 20
0.0
 30
0.0
  0
VERTEX
  5
267
330
266
100
AcDbEntity
  8
Layer 1
 62
   243
420
 13980531
370
    70
100
AcDbVertex
100
AcDb2dVertex
 10
74.95226151374324
 20
-181.263716175368
 30
0.0
  0
VERTEX
  5
268
330
266
100
AcDbEntity
  8
Layer 1
 62
   243
420
 13980531
370
    70
100
AcDbVertex
100
AcDb2dVertex
 10
74.95226151374324
 20
-185.1555942707753
 30
0.0
  0
SEQEND
  5
269
330
266
100
AcDbEntity
  8
Layer 1
 62
   243
420
 13980531
370
    70
  0
POLYLINE
  5
26A
330
41
100
AcDbEntity
  8
Layer 1
 62
   250
420
  2301728
370
   106
100
AcDb2dPolyline
 66
     1
 10
0.0
 20
0.0
 30
0.0
  0
VERTEX
  5
26B
330
26A
100
AcDbEntity
  8
Layer 1
 62
   250
420
  2301728
370
   106
100
AcDbVertex
100
AcDb2dVertex
 10
74.95226151374324
 20
-185.1555942707753
 30
0.0
  0
VERTEX
  5
26C
330
26A
100
AcDbEntity
  8
Layer 1
 62
   250
420
  2301728
370
   106
100
AcDbVertex
100
AcDb2dVertex
 10
74.95226151374324
 20
-189.0477744282958
 30
0.0
  0
SEQEND
  5
26D
330
26A
100
AcDbEntity
  8
Layer 1
 62
   250
420
  2301728
370
   106
  0
POLYLINE
  5
26E
330
41
100
AcDbEntity
  8
Layer 1
 62
   243
420
 13980531
370
    70
100
AcDb2dPolyline
 66
     1
 10
0.0
 20
0.0
 30
0.0
  0
VERTEX
  5
26F
330
26E
100
AcDbEntity
  8
Layer 1
 62
   243
420
 13980531
370
    70
100
AcDbVertex
100
AcDb2dVertex
 10
74.95226151374324
 20
-189.0477744282958
 30
0.0
  0
VERTEX
  5
270
330
26E
100
AcDbEntity
  8
Layer 1
 62
   243
420
 13980531
370
    70
100
AcDbVertex
100
AcDb2dVertex
 10
74.95226151374324
 20
-192.939927125624
 30
0.0
  0
SEQEND
  5
271
330
26E
100
AcDbEntity
  8
Layer 1
 62
   243
420
 13980531
370
    70
  0
POLYLINE
  5
272
330
41
100
AcDbEntity
  8
Layer 1
 62
   250
420
  2301728
370
   106
100
AcDb2dPolyline
 66
     1
 10
0.0
 20
0.0
 30
0.0
  0
VERTEX
  5
273
330
272
100
AcDbEntity
  8
Layer 1
 62
   250
420
  2301728
370
   106
100
AcDbVertex
100
AcDb2dVertex
 10
74.95226151374324
 20
-192.939927125624
 30
0.0
  0
VERTEX
  5
274
330
272
100
AcDbEntity
  8
Layer 1
 62
   250
420
  2301728
370
   106
100
AcDbVertex
100
AcDb2dVertex
 10
74.95226151374324
 20
-196.8318052210326
 30
0.0
  0
SEQEND
  5
275
330
272
100
AcDbEntity
  8
Layer 1
 62
   250
420
  2301728
370
   106
  0
POLYLINE
  5
276
330
41
100
AcDbEntity
  8
Layer 1
 62
   243
420
 13980531
370
    70
100
AcDb2dPolyline
 66
     1
 10
0.0
 20
0.0
 30
0.0
  0
VERTEX
  5
277
330
276
100
AcDbEntity
  8
Layer 1
 62
   243
420
 13980531
370
    70
100
AcDbVertex
100
AcDb2dVertex
 10
74.95226151374324
 20
-196.8318052210326
 30
0.0
  0
VERTEX
  5
278
330
276
100
AcDbEntity
  8
Layer 1
 62
   243
420
 13980531
370
    70
100
AcDbVertex
100
AcDb2dVertex
 10
74.95226151374324
 20
-200.7237107766335
 30
0.0
  0
SEQEND
  5
279
330
276
100
AcDbEntity
  8
Layer 1
 62
   243
420
 13980531
370
    70
  0
POLYLINE
  5
27A
330
41
100
AcDbEntity
  8
Layer 1
 62
   250
420
  2301728
370
   106
100
AcDb2dPolyline
 66
     1
 10
0.0
 20
0.0
 30
0.0
  0
VERTEX
  5
27B
330
27A
100
AcDbEntity
  8
Layer 1
 62
   250
420
  2301728
370
   106
100
AcDbVertex
100
AcDb2dVertex
 10
74.95226151374324
 20
-200.7237107766335
 30
0.0
  0
VERTEX
  5
27C
330
27A
100
AcDbEntity
  8
Layer 1
 62
   250
420
  2301728
370
   106
100
AcDbVertex
100
AcDb2dVertex
 10
74.95226151374324
 20
-204.6156163322332
 30
0.0
  0
SEQEND
  5
27D
330
27A
100
AcDbEntity
  8
Layer 1
 62
   250
420
  2301728
370
   106
  0
POLYLINE
  5
27E
330
41
100
AcDbEntity
  8
Layer 1
 62
   243
420
 13980531
370
    70
100
AcDb2dPolyline
 66
     1
 10
0.0
 20
0.0
 30
0.0
  0
VERTEX
  5
27F
330
27E
100
AcDbEntity
  8
Layer 1
 62
   243
420
 13980531
370
    70
100
AcDbVertex
100
AcDb2dVertex
 10
74.95226151374324
 20
-204.6156163322332
 30
0.0
  0
VERTEX
  5
280
330
27E
100
AcDbEntity
  8
Layer 1
 62
   243
420
 13980531
370
    70
100
AcDbVertex
100
AcDb2dVertex
 10
74.95226151374324
 20
-207.729547187555
 30
0.0
  0
SEQEND
  5
281
330
27E
100
AcDbEntity
  8
Layer 1
 62
   243
420
 13980531
370
    70
  0
POLYLINE
  5
282
330
41
100
AcDbEntity
  8
Layer 1
 62
   250
420
  2301728
370
    70
100
AcDb2dPolyline
 66
     1
 10
0.0
 20
0.0
 30
0.0
  0
VERTEX
  5
283
330
282
100
AcDbEntity
  8
Layer 1
 62
   250
420
  2301728
370
    70
100
AcDbVertex
100
AcDb2dVertex
 10
73.39529608608235
 20
-209.2859908715678
 30
0.0
  0
VERTEX
  5
284
330
282
100
AcDbEntity
  8
Layer 1
 62
   250
420
  2301728
370
    70
100
AcDbVertex
100
AcDb2dVertex
 10
74.95226151374324
 20
-207.729547187555
 30
0.0
  0
SEQEND
  5
285
330
282
100
AcDbEntity
  8
Layer 1
 62
   250
420
  2301728
370
    70
  0
POLYLINE
  5
286
330
41
100
AcDbEntity
  8
Layer 1
 62
   250
420
  2301728
370
    70
100
AcDb2dPolyline
 66
     1
 10
0.0
 20
0.0
 30
0.0
  0
VERTEX
  5
287
330
286
100
AcDbEntity
  8
Layer 1
 62
   250
420
  2301728
370
    70
100
AcDbVertex
100
AcDb2dVertex
 10
73.39529608608235
 20
-209.2859908715678
 30
0.0
  0
VERTEX
  5
288
330
286
100
AcDbEntity
  8
Layer 1
 62
   250
420
  2301728
370
    70
100
AcDbVertex
100
AcDb2dVertex
 10
53.15707964281101
 20
-209.2859908715678
 30
0.0
  0
VERTEX
  5
289
330
286
100
AcDbEntity
  8
Layer 1
 62
   250
420
  2301728
370
    70
100
AcDbVertex
100
AcDb2dVertex
 10
51.60038881706969
 20
-207.729547187555
 30
0.0
  0
SEQEND
  5
28A
330
286
100
AcDbEntity
  8
Layer 1
 62
   250
420
  2301728
370
    70
  0
POLYLINE
  5
28B
330
41
100
AcDbEntity
  8
Layer 1
 62
   243
420
 13980531
370
    70
100
AcDb2dPolyline
 66
     1
 10
0.0
 20
0.0
 30
0.0
  0
VERTEX
  5
28C
330
28B
100
AcDbEntity
  8
Layer 1
 62
   243
420
 13980531
370
    70
100
AcDbVertex
100
AcDb2dVertex
 10
51.60038881706969
 20
-207.729547187555
 30
0.0
  0
VERTEX
  5
28D
330
28B
100
AcDbEntity
  8
Layer 1
 62
   243
420
 13980531
370
    70
100
AcDbVertex
100
AcDb2dVertex
 10
51.60038881706969
 20
-204.6156163322332
 30
0.0
  0
SEQEND
  5
28E
330
28B
100
AcDbEntity
  8
Layer 1
 62
   243
420
 13980531
370
    70
  0
POLYLINE
  5
28F
330
41
100
AcDbEntity
  8
Layer 1
 62
   250
420
  2301728
370
   106
100
AcDb2dPolyline
 66
     1
 10
0.0
 20
0.0
 30
0.0
  0
VERTEX
  5
290
330
28F
100
AcDbEntity
  8
Layer 1
 62
   250
420
  2301728
370
   106
100
AcDbVertex
100
AcDb2dVertex
 10
51.60038881706969
 20
-204.6156163322332
 30
0.0
  0
VERTEX
  5
291
330
28F
100
AcDbEntity
  8
Layer 1
 62
   250
420
  2301728
370
   106
100
AcDbVertex
100
AcDb2dVertex
 10
51.60038881706969
 20
-200.7237107766335
 30
0.0
  0
SEQEND
  5
292
330
28F
100
AcDbEntity
  8
Layer 1
 62
   250
420
  2301728
370
   106
  0
POLYLINE
  5
293
330
41
100
AcDbEntity
  8
Layer 1
 62
   243
420
 13980531
370
    70
100
AcDb2dPolyline
 66
     1
 10
0.0
 20
0.0
 30
0.0
  0
VERTEX
  5
294
330
293
100
AcDbEntity
  8
Layer 1
 62
   243
420
 13980531
370
    70
100
AcDbVertex
100
AcDb2dVertex
 10
51.60038881706969
 20
-200.7237107766335
 30
0.0
  0
VERTEX
  5
295
330
293
100
AcDbEntity
  8
Layer 1
 62
   243
420
 13980531
370
    70
100
AcDbVertex
100
AcDb2dVertex
 10
51.60038881706969
 20
-196.8318052210326
 30
0.0
  0
SEQEND
  5
296
330
293
100
AcDbEntity
  8
Layer 1
 62
   243
420
 13980531
370
    70
  0
POLYLINE
  5
297
330
41
100
AcDbEntity
  8
Layer 1
 62
   250
420
  2301728
370
   106
100
AcDb2dPolyline
 66
     1
 10
0.0
 20
0.0
 30
0.0
  0
VERTEX
  5
298
330
297
100
AcDbEntity
  8
Layer 1
 62
   250
420
  2301728
370
   106
100
AcDbVertex
100
AcDb2dVertex
 10
51.60038881706969
 20
-196.8318052210326
 30
0.0
  0
VERTEX
  5
299
330
297
100
AcDbEntity
  8
Layer 1
 62
   250
420
  2301728
370
   106
100
AcDbVertex
100
AcDb2dVertex
 10
51.60038881706969
 20
-192.939927125624
 30
0.0
  0
SEQEND
  5
29A
330
297
100
AcDbEntity
  8
Layer 1
 62
   250
420
  2301728
370
   106
  0
POLYLINE
  5
29B
330
41
100
AcDbEntity
  8
Layer 1
 62
   243
420
 13980531
370
    70
100
AcDb2dPolyline
 66
     1
 10
0.0
 20
0.0
 30
0.0
  0
VERTEX
  5
29C
330
29B
100
AcDbEntity
  8
Layer 1
 62
   243
420
 13980531
370
    70
100
AcDbVertex
100
AcDb2dVertex
 10
51.60038881706969
 20
-192.939927125624
 30
0.0
  0
VERTEX
  5
29D
330
29B
100
AcDbEntity
  8
Layer 1
 62
   243
420
 13980531
370
    70
100
AcDbVertex
100
AcDb2dVertex
 10
51.60038881706969
 20
-189.0477744282958
 30
0.0
  0
SEQEND
  5
29E
330
29B
100
AcDbEntity
  8
Layer 1
 62
   243
420
 13980531
370
    70
  0
POLYLINE
  5
29F
330
41
100
AcDbEntity
  8
Layer 1
 62
   250
420
  2301728
370
   106
100
AcDb2dPolyline
 66
     1
 10
0.0
 20
0.0
 30
0.0
  0
VERTEX
  5
2A0
330
29F
100
AcDbEntity
  8
Layer 1
 62
   250
420
  2301728
370
   106
100
AcDbVertex
100
AcDb2dVertex
 10
51.60038881706969
 20
-189.0477744282958
 30
0.0
  0
VERTEX
  5
2A1
330
29F
100
AcDbEntity
  8
Layer 1
 62
   250
420
  2301728
370
   106
100
AcDbVertex
100
AcDb2dVertex
 10
51.60038881706969
 20
-185.1555942707753
 30
0.0
  0
SEQEND
  5
2A2
330
29F
100
AcDbEntity
  8
Layer 1
 62
   250
420
  2301728
370
   106
  0
POLYLINE
  5
2A3
330
41
100
AcDbEntity
  8
Layer 1
 62
   243
420
 13980531
370
    70
100
AcDb2dPolyline
 66
     1
 10
0.0
 20
0.0
 30
0.0
  0
VERTEX
  5
2A4
330
2A3
100
AcDbEntity
  8
Layer 1
 62
   243
420
 13980531
370
    70
100
AcDbVertex
100
AcDb2dVertex
 10
51.60038881706969
 20
-185.1555942707753
 30
0.0
  0
VERTEX
  5
2A5
330
2A3
100
AcDbEntity
  8
Layer 1
 62
   243
420
 13980531
370
    70
100
AcDbVertex
100
AcDb2dVertex
 10
51.60038881706969
 20
-181.263716175368
 30
0.0
  0
SEQEND
  5
2A6
330
2A3
100
AcDbEntity
  8
Layer 1
 62
   243
420
 13980531
370
    70
  0
POLYLINE
  5
2A7
330
41
100
AcDbEntity
  8
Layer 1
 62
   250
420
  2301728
370
   106
100
AcDb2dPolyline
 66
     1
 10
0.0
 20
0.0
 30
0.0
  0
VERTEX
  5
2A8
330
2A7
100
AcDbEntity
  8
Layer 1
 62
   250
420
  2301728
370
   106
100
AcDbVertex
100
AcDb2dVertex
 10
51.60038881706969
 20
-181.263716175368
 30
0.0
  0
VERTEX
  5
2A9
330
2A7
100
AcDbEntity
  8
Layer 1
 62
   250
420
  2301728
370
   106
100
AcDbVertex
100
AcDb2dVertex
 10
51.60038881706969
 20
-177.3715634780385
 30
0.0
  0
SEQEND
  5
2AA
330
2A7
100
AcDbEntity
  8
Layer 1
 62
   250
420
  2301728
370
   106
  0
POLYLINE
  5
2AB
330
41
100
AcDbEntity
  8
Layer 1
 62
   243
420
 13980531
370
    70
100
AcDb2dPolyline
 66
     1
 10
0.0
 20
0.0
 30
0.0
  0
VERTEX
  5
2AC
330
2AB
100
AcDbEntity
  8
Layer 1
 62
   243
420
 13980531
370
    70
100
AcDbVertex
100
AcDb2dVertex
 10
51.60038881706969
 20
-177.3715634780385
 30
0.0
  0
VERTEX
  5
2AD
330
2AB
100
AcDbEntity
  8
Layer 1
 62
   243
420
 13980531
370
    70
100
AcDbVertex
100
AcDb2dVertex
 10
51.60038881706969
 20
-173.4799325243597
 30
0.0
  0
SEQEND
  5
2AE
330
2AB
100
AcDbEntity
  8
Layer 1
 62
   243
420
 13980531
370
    70
  0
POLYLINE
  5
2AF
330
41
100
AcDbEntity
  8
Layer 1
 62
   250
420
  2301728
370
   106
100
AcDb2dPolyline
 66
     1
 10
0.0
 20
0.0
 30
0.0
  0
VERTEX
  5
2B0
330
2AF
100
AcDbEntity
  8
Layer 1
 62
   250
420
  2301728
370
   106
100
AcDbVertex
100
AcDb2dVertex
 10
51.60038881706969
 20
-173.4799325243597
 30
0.0
  0
VERTEX
  5
2B1
330
2AF
100
AcDbEntity
  8
Layer 1
 62
   250
420
  2301728
370
   106
100
AcDbVertex
100
AcDb2dVertex
 10
51.60038881706969
 20
-169.5880269687587
 30
0.0
  0
SEQEND
  5
2B2
330
2AF
100
AcDbEntity
  8
Layer 1
 62
   250
420
  2301728
370
   106
  0
POLYLINE
  5
2B3
330
41
100
AcDbEntity
  8
Layer 1
 62
   243
420
 13980531
370
    70
100
AcDb2dPolyline
 66
     1
 10
0.0
 20
0.0
 30
0.0
  0
VERTEX
  5
2B4
330
2B3
100
AcDbEntity
  8
Layer 1
 62
   243
420
 13980531
370
    70
100
AcDbVertex
100
AcDb2dVertex
 10
51.60038881706969
 20
-169.5880269687587
 30
0.0
  0
VERTEX
  5
2B5
330
2B3
100
AcDbEntity
  8
Layer 1
 62
   243
420
 13980531
370
    70
100
AcDbVertex
100
AcDb2dVertex
 10
51.60038881706969
 20
-165.695599669511
 30
0.0
  0
SEQEND
  5
2B6
330
2B3
100
AcDbEntity
  8
Layer 1
 62
   243
420
 13980531
370
    70
  0
POLYLINE
  5
2B7
330
41
100
AcDbEntity
  8
Layer 1
 62
   250
420
  2301728
370
   106
100
AcDb2dPolyline
 66
     1
 10
0.0
 20
0.0
 30
0.0
  0
VERTEX
  5
2B8
330
2B7
100
AcDbEntity
  8
Layer 1
 62
   250
420
  2301728
370
   106
100
AcDbVertex
100
AcDb2dVertex
 10
51.60038881706969
 20
-165.695599669511
 30
0.0
  0
VERTEX
  5
2B9
330
2B7
100
AcDbEntity
  8
Layer 1
 62
   250
420
  2301728
370
   106
100
AcDbVertex
100
AcDb2dVertex
 10
51.60038881706969
 20
-161.8037215741024
 30
0.0
  0
SEQEND
  5
2BA
330
2B7
100
AcDbEntity
  8
Layer 1
 62
   250
420
  2301728
370
   106
  0
POLYLINE
  5
2BB
330
41
100
AcDbEntity
  8
Layer 1
 62
   243
420
 13980531
370
    70
100
AcDb2dPolyline
 66
     1
 10
0.0
 20
0.0
 30
0.0
  0
VERTEX
  5
2BC
330
2BB
100
AcDbEntity
  8
Layer 1
 62
   243
420
 13980531
370
    70
100
AcDbVertex
100
AcDb2dVertex
 10
51.60038881706969
 20
-161.8037215741024
 30
0.0
  0
VERTEX
  5
2BD
330
2BB
100
AcDbEntity
  8
Layer 1
 62
   243
420
 13980531
370
    70
100
AcDbVertex
100
AcDb2dVertex
 10
51.60038881706969
 20
-157.9115688767742
 30
0.0
  0
SEQEND
  5
2BE
330
2BB
100
AcDbEntity
  8
Layer 1
 62
   243
420
 13980531
370
    70
  0
POLYLINE
  5
2BF
330
41
100
AcDbEntity
  8
Layer 1
 62
   250
420
  2301728
370
   106
100
AcDb2dPolyline
 66
     1
 10
0.0
 20
0.0
 30
0.0
  0
VERTEX
  5
2C0
330
2BF
100
AcDbEntity
  8
Layer 1
 62
   250
420
  2301728
370
   106
100
AcDbVertex
100
AcDb2dVertex
 10
51.60038881706969
 20
-157.9115688767742
 30
0.0
  0
VERTEX
  5
2C1
330
2BF
100
AcDbEntity
  8
Layer 1
 62
   250
420
  2301728
370
   106
100
AcDbVertex
100
AcDb2dVertex
 10
51.60038881706969
 20
-154.0196633211732
 30
0.0
  0
SEQEND
  5
2C2
330
2BF
100
AcDbEntity
  8
Layer 1
 62
   250
420
  2301728
370
   106
  0
POLYLINE
  5
2C3
330
41
100
AcDbEntity
  8
Layer 1
 62
   243
420
 13980531
370
    70
100
AcDb2dPolyline
 66
     1
 10
0.0
 20
0.0
 30
0.0
  0
VERTEX
  5
2C4
330
2C3
100
AcDbEntity
  8
Layer 1
 62
   243
420
 13980531
370
    70
100
AcDbVertex
100
AcDb2dVertex
 10
51.60038881706969
 20
-154.0196633211732
 30
0.0
  0
VERTEX
  5
2C5
330
2C3
100
AcDbEntity
  8
Layer 1
 62
   243
420
 13980531
370
    70
100
AcDbVertex
100
AcDb2dVertex
 10
51.60038881706969
 20
-150.1280323674944
 30
0.0
  0
SEQEND
  5
2C6
330
2C3
100
AcDbEntity
  8
Layer 1
 62
   243
420
 13980531
370
    70
  0
POLYLINE
  5
2C7
330
41
100
AcDbEntity
  8
Layer 1
 62
   250
420
  2301728
370
   106
100
AcDb2dPolyline
 66
     1
 10
0.0
 20
0.0
 30
0.0
  0
VERTEX
  5
2C8
330
2C7
100
AcDbEntity
  8
Layer 1
 62
   250
420
  2301728
370
   106
100
AcDbVertex
100
AcDb2dVertex
 10
51.60038881706969
 20
-150.1280323674944
 30
0.0
  0
VERTEX
  5
2C9
330
2C7
100
AcDbEntity
  8
Layer 1
 62
   250
420
  2301728
370
   106
100
AcDbVertex
100
AcDb2dVertex
 10
51.60038881706969
 20
-146.2358796701653
 30
0.0
  0
SEQEND
  5
2CA
330
2C7
100
AcDbEntity
  8
Layer 1
 62
   250
420
  2301728
370
   106
  0
POLYLINE
  5
2CB
330
41
100
AcDbEntity
  8
Layer 1
 62
   243
420
 13980531
370
    70
100
AcDb2dPolyline
 66
     1
 10
0.0
 20
0.0
 30
0.0
  0
VERTEX
  5
2CC
330
2CB
100
AcDbEntity
  8
Layer 1
 62
   243
420
 13980531
370
    70
100
AcDbVertex
100
AcDb2dVertex
 10
51.60038881706969
 20
-146.2358796701653
 30
0.0
  0
VERTEX
  5
2CD
330
2CB
100
AcDbEntity
  8
Layer 1
 62
   243
420
 13980531
370
    70
100
AcDbVertex
100
AcDb2dVertex
 10
51.60038881706969
 20
-142.3439741145656
 30
0.0
  0
SEQEND
  5
2CE
330
2CB
100
AcDbEntity
  8
Layer 1
 62
   243
420
 13980531
370
    70
  0
POLYLINE
  5
2CF
330
41
100
AcDbEntity
  8
Layer 1
 62
   250
420
  2301728
370
   106
100
AcDb2dPolyline
 66
     1
 10
0.0
 20
0.0
 30
0.0
  0
VERTEX
  5
2D0
330
2CF
100
AcDbEntity
  8
Layer 1
 62
   250
420
  2301728
370
   106
100
AcDbVertex
100
AcDb2dVertex
 10
51.60038881706969
 20
-142.3439741145656
 30
0.0
  0
VERTEX
  5
2D1
330
2CF
100
AcDbEntity
  8
Layer 1
 62
   250
420
  2301728
370
   106
100
AcDbVertex
100
AcDb2dVertex
 10
51.60038881706969
 20
-138.4515468153166
 30
0.0
  0
SEQEND
  5
2D2
330
2CF
100
AcDbEntity
  8
Layer 1
 62
   250
420
  2301728
370
   106
  0
POLYLINE
  5
2D3
330
41
100
AcDbEntity
  8
Layer 1
 62
   243
420
 13980531
370
    70
100
AcDb2dPolyline
 66
     1
 10
0.0
 20
0.0
 30
0.0
  0
VERTEX
  5
2D4
330
2D3
100
AcDbEntity
  8
Layer 1
 62
   243
420
 13980531
370
    70
100
AcDbVertex
100
AcDb2dVertex
 10
51.60038881706969
 20
-138.4515468153166
 30
0.0
  0
VERTEX
  5
2D5
330
2D3
100
AcDbEntity
  8
Layer 1
 62
   243
420
 13980531
370
    70
100
AcDbVertex
100
AcDb2dVertex
 10
51.60038881706969
 20
-134.5596687199086
 30
0.0
  0
SEQEND
  5
2D6
330
2D3
100
AcDbEntity
  8
Layer 1
 62
   243
420
 13980531
370
    70
  0
POLYLINE
  5
2D7
330
41
100
AcDbEntity
  8
Layer 1
 62
   250
420
  2301728
370
   106
100
AcDb2dPolyline
 66
     1
 10
0.0
 20
0.0
 30
0.0
  0
VERTEX
  5
2D8
330
2D7
100
AcDbEntity
  8
Layer 1
 62
   250
420
  2301728
370
   106
100
AcDbVertex
100
AcDb2dVertex
 10
51.60038881706969
 20
-134.5596687199086
 30
0.0
  0
VERTEX
  5
2D9
330
2D7
100
AcDbEntity
  8
Layer 1
 62
   250
420
  2301728
370
   106
100
AcDbVertex
100
AcDb2dVertex
 10
51.60038881706969
 20
-130.6680377662285
 30
0.0
  0
SEQEND
  5
2DA
330
2D7
100
AcDbEntity
  8
Layer 1
 62
   250
420
  2301728
370
   106
  0
POLYLINE
  5
2DB
330
41
100
AcDbEntity
  8
Layer 1
 62
   243
420
 13980531
370
    70
100
AcDb2dPolyline
 66
     1
 10
0.0
 20
0.0
 30
0.0
  0
VERTEX
  5
2DC
330
2DB
100
AcDbEntity
  8
Layer 1
 62
   243
420
 13980531
370
    70
100
AcDbVertex
100
AcDb2dVertex
 10
51.60038881706969
 20
-130.6680377662285
 30
0.0
  0
VERTEX
  5
2DD
330
2DB
100
AcDbEntity
  8
Layer 1
 62
   243
420
 13980531
370
    70
100
AcDbVertex
100
AcDb2dVertex
 10
51.60038881706969
 20
-126.7756104669795
 30
0.0
  0
SEQEND
  5
2DE
330
2DB
100
AcDbEntity
  8
Layer 1
 62
   243
420
 13980531
370
    70
  0
POLYLINE
  5
2DF
330
41
100
AcDbEntity
  8
Layer 1
 62
   250
420
  2301728
370
   106
100
AcDb2dPolyline
 66
     1
 10
0.0
 20
0.0
 30
0.0
  0
VERTEX
  5
2E0
330
2DF
100
AcDbEntity
  8
Layer 1
 62
   250
420
  2301728
370
   106
100
AcDbVertex
100
AcDb2dVertex
 10
51.60038881706969
 20
-126.7756104669795
 30
0.0
  0
VERTEX
  5
2E1
330
2DF
100
AcDbEntity
  8
Layer 1
 62
   250
420
  2301728
370
   106
100
AcDbVertex
100
AcDb2dVertex
 10
51.60038881706969
 20
-122.8839795133
 30
0.0
  0
SEQEND
  5
2E2
330
2DF
100
AcDbEntity
  8
Layer 1
 62
   250
420
  2301728
370
   106
  0
POLYLINE
  5
2E3
330
41
100
AcDbEntity
  8
Layer 1
 62
   243
420
 13980531
370
    70
100
AcDb2dPolyline
 66
     1
 10
0.0
 20
0.0
 30
0.0
  0
VERTEX
  5
2E4
330
2E3
100
AcDbEntity
  8
Layer 1
 62
   243
420
 13980531
370
    70
100
AcDbVertex
100
AcDb2dVertex
 10
51.60038881706969
 20
-122.8839795133
 30
0.0
  0
VERTEX
  5
2E5
330
2E3
100
AcDbEntity
  8
Layer 1
 62
   243
420
 13980531
370
    70
100
AcDbVertex
100
AcDb2dVertex
 10
51.60038881706969
 20
-119.7703232598985
 30
0.0
  0
SEQEND
  5
2E6
330
2E3
100
AcDbEntity
  8
Layer 1
 62
   243
420
 13980531
370
    70
  0
POLYLINE
  5
2E7
330
41
100
AcDbEntity
  8
Layer 1
 62
   250
420
  2301728
370
    70
100
AcDb2dPolyline
 66
     1
 10
0.0
 20
0.0
 30
0.0
  0
VERTEX
  5
2E8
330
2E7
100
AcDbEntity
  8
Layer 1
 62
   250
420
  2301728
370
    70
100
AcDbVertex
100
AcDb2dVertex
 10
74.95226151374324
 20
-207.729547187555
 30
0.0
  0
VERTEX
  5
2E9
330
2E7
100
AcDbEntity
  8
Layer 1
 62
   250
420
  2301728
370
    70
100
AcDbVertex
100
AcDb2dVertex
 10
63.27577596156571
 20
-196.0536108392185
 30
0.0
  0
SEQEND
  5
2EA
330
2E7
100
AcDbEntity
  8
Layer 1
 62
   250
420
  2301728
370
    70
  0
POLYLINE
  5
2EB
330
41
100
AcDbEntity
  8
Layer 1
 62
   250
420
  2301728
370
    70
100
AcDb2dPolyline
 66
     1
 10
0.0
 20
0.0
 30
0.0
  0
VERTEX
  5
2EC
330
2EB
100
AcDbEntity
  8
Layer 1
 62
   250
420
  2301728
370
    70
100
AcDbVertex
100
AcDb2dVertex
 10
51.60038881706969
 20
-207.729547187555
 30
0.0
  0
VERTEX
  5
2ED
330
2EB
100
AcDbEntity
  8
Layer 1
 62
   250
420
  2301728
370
    70
100
AcDbVertex
100
AcDb2dVertex
 10
63.27577596156571
 20
-196.0536108392185
 30
0.0
  0
SEQEND
  5
2EE
330
2EB
100
AcDbEntity
  8
Layer 1
 62
   250
420
  2301728
370
    70
  0
POLYLINE
  5
2EF
330
41
100
AcDbEntity
  8
Layer 1
 62
   250
420
  2301728
370
    70
100
AcDb2dPolyline
 66
     1
 10
0.0
 20
0.0
 30
0.0
  0
VERTEX
  5
2F0
330
2EF
100
AcDbEntity
  8
Layer 1
 62
   250
420
  2301728
370
    70
100
AcDbVertex
100
AcDb2dVertex
 10
74.95226151374324
 20
-119.7703232598985
 30
0.0
  0
VERTEX
  5
2F1
330
2EF
100
AcDbEntity
  8
Layer 1
 62
   250
420
  2301728
370
    70
100
AcDbVertex
100
AcDb2dVertex
 10
51.60038881706969
 20
-119.7703232598985
 30
0.0
  0
SEQEND
  5
2F2
330
2EF
100
AcDbEntity
  8
Layer 1
 62
   250
420
  2301728
370
    70
  0
POLYLINE
  5
2F3
330
41
100
AcDbEntity
  8
Layer 1
 62
   250
420
  2301728
370
    70
100
AcDb2dPolyline
 66
     1
 10
0.0
 20
0.0
 30
0.0
  0
VERTEX
  5
2F4
330
2F3
100
AcDbEntity
  8
Layer 1
 62
   250
420
  2301728
370
    70
100
AcDbVertex
100
AcDb2dVertex
 10
63.27577596156571
 20
-119.7703232598985
 30
0.0
  0
VERTEX
  5
2F5
330
2F3
100
AcDbEntity
  8
Layer 1
 62
   250
420
  2301728
370
    70
100
AcDbVertex
100
AcDb2dVertex
 10
63.27577596156571
 20
-196.0536108392185
 30
0.0
  0
SEQEND
  5
2F6
330
2F3
100
AcDbEntity
  8
Layer 1
 62
   250
420
  2301728
370
    70
  0
SPLINE
  5
2F7
330
41
100
AcDbEntity
  8
Layer 1
 62
   250
420
  2301728
370
    70
100
AcDbSpline
210
0.0
220
0.0
230
1.0
 70
     8
 71
     3
 72
    20
 73
    16
 74
     0
 42
0.0000000001
 43
0.0000000001
 12
1.0
 22
0.0
 32
0.0
 13
1.0
 23
0.0
 33
0.0
 40
0.0
 40
0.0
 40
0.0
 40
0.0
 40
1.0
 40
1.0
 40
1.0
 40
2.0
 40
2.0
 40
2.0
 40
3.0
 40
3.0
 40
3.0
 40
4.0
 40
4.0
 40
4.0
 40
5.0
 40
5.0
 40
5.0
 40
5.0
 10
30.58367592987174
 20
-150.9062542094995
 30
0.0
 10
30.58367592987174
 20
-150.9062542094995
 30
0.0
 10
30.58367592987174
 20
-150.9062542094995
 30
0.0
 10
30.58367592987174
 20
-150.9062542094995
 30
0.0
 10
29.28950453989606
 20
-150.9102908577277
 30
0.0
 10
28.25225070651171
 20
-151.9472700891918
 30
0.0
 10
28.24821405828423
 20
-153.2411668772473
 30
0.0
 10
28.24821405828423
 20
-153.2411668772473
 30
0.0
 10
28.24821405828423
 20
-179.706750747707
 30
0.0
 10
28.24821405828423
 20
-179.706750747707
 30
0.0
 10
28.25225070651171
 20
-181.0009221376821
 30
0.0
 10
29.28950453989606
 20
-182.0381759710658
 30
0.0
 10
30.58367592987174
 20
-182.0419380173731
 30
0.0
 10
30.58367592987174
 20
-182.0419380173731
 30
0.0
 10
30.58367592987174
 20
-182.0419380173731
 30
0.0
 10
30.58367592987174
 20
-182.0419380173731
 30
0.0
  0
POLYLINE
  5
2F8
330
41
100
AcDbEntity
  8
Layer 1
 62
   243
420
 13980531
370
    70
100
AcDb2dPolyline
 66
     1
 10
0.0
 20
0.0
 30
0.0
  0
VERTEX
  5
2F9
330
2F8
100
AcDbEntity
  8
Layer 1
 62
   243
420
 13980531
370
    70
100
AcDbVertex
100
AcDb2dVertex
 10
30.58367592987174
 20
-182.0419380173731
 30
0.0
  0
VERTEX
  5
2FA
330
2F8
100
AcDbEntity
  8
Layer 1
 62
   243
420
 13980531
370
    70
100
AcDbVertex
100
AcDb2dVertex
 10
30.58367592987174
 20
-219.4057581378123
 30
0.0
  0
SEQEND
  5
2FB
330
2F8
100
AcDbEntity
  8
Layer 1
 62
   243
420
 13980531
370
    70
  0
SPLINE
  5
2FC
330
41
100
AcDbEntity
  8
Layer 1
 62
   250
420
  2301728
370
    70
100
AcDbSpline
210
0.0
220
0.0
230
1.0
 70
     8
 71
     3
 72
    14
 73
    10
 74
     0
 42
0.0000000001
 43
0.0000000001
 12
1.0
 22
0.0
 32
0.0
 13
1.0
 23
0.0
 33
0.0
 40
0.0
 40
0.0
 40
0.0
 40
0.0
 40
1.0
 40
1.0
 40
1.0
 40
2.0
 40
2.0
 40
2.0
 40
3.0
 40
3.0
 40
3.0
 40
3.0
 10
159.0190856023434
 20
-150.9062542094995
 30
0.0
 10
160.3132295321267
 20
-150.9102908577277
 30
0.0
 10
161.3505108257034
 20
-151.9472700891918
 30
0.0
 10
161.3537236681702
 20
-153.2411668772473
 30
0.0
 10
161.3537236681702
 20
-153.2411668772473
 30
0.0
 10
161.3537236681702
 20
-179.706750747707
 30
0.0
 10
161.3537236681702
 20
-179.706750747707
 30
0.0
 10
161.3505108257034
 20
-181.0009221376821
 30
0.0
 10
160.3132295321267
 20
-182.0381759710658
 30
0.0
 10
159.0190856023434
 20
-182.0419380173731
 30
0.0
  0
POLYLINE
  5
2FD
330
41
100
AcDbEntity
  8
Layer 1
 62
   243
420
 13980531
370
    70
100
AcDb2dPolyline
 66
     1
 10
0.0
 20
0.0
 30
0.0
  0
VERTEX
  5
2FE
330
2FD
100
AcDbEntity
  8
Layer 1
 62
   243
420
 13980531
370
    70
100
AcDbVertex
100
AcDb2dVertex
 10
159.0190856023434
 20
-150.9062542094995
 30
0.0
  0
VERTEX
  5
2FF
330
2FD
100
AcDbEntity
  8
Layer 1
 62
   243
420
 13980531
370
    70
100
AcDbVertex
100
AcDb2dVertex
 10
159.0190856023434
 20
-90.96930497804352
 30
0.0
  0
SEQEND
  5
300
330
2FD
100
AcDbEntity
  8
Layer 1
 62
   243
420
 13980531
370
    70
  0
POLYLINE
  5
301
330
41
100
AcDbEntity
  8
Layer 1
 62
   250
420
  2301728
370
    70
100
AcDb2dPolyline
 66
     1
 10
0.0
 20
0.0
 30
0.0
  0
VERTEX
  5
302
330
301
100
AcDbEntity
  8
Layer 1
 62
   250
420
  2301728
370
    70
100
AcDbVertex
100
AcDb2dVertex
 10
30.58367592987174
 20
-219.4057581378123
 30
0.0
  0
VERTEX
  5
303
330
301
100
AcDbEntity
  8
Layer 1
 62
   250
420
  2301728
370
    70
100
AcDbVertex
100
AcDb2dVertex
 10
34.47558148547205
 20
-233.4163600121679
 30
0.0
  0
VERTEX
  5
304
330
301
100
AcDbEntity
  8
Layer 1
 62
   250
420
  2301728
370
    70
100
AcDbVertex
100
AcDb2dVertex
 10
155.1274546486633
 20
-233.4163600121679
 30
0.0
  0
VERTEX
  5
305
330
301
100
AcDbEntity
  8
Layer 1
 62
   250
420
  2301728
370
    70
100
AcDbVertex
100
AcDb2dVertex
 10
159.0190856023434
 20
-219.4057581378123
 30
0.0
  0
SEQEND
  5
306
330
301
100
AcDbEntity
  8
Layer 1
 62
   250
420
  2301728
370
    70
  0
POLYLINE
  5
307
330
41
100
AcDbEntity
  8
Layer 1
 62
   250
420
  2301728
370
    70
100
AcDb2dPolyline
 66
     1
 10
0.0
 20
0.0
 30
0.0
  0
VERTEX
  5
308
330
307
100
AcDbEntity
  8
Layer 1
 62
   250
420
  2301728
370
    70
100
AcDbVertex
100
AcDb2dVertex
 10
30.58367592987174
 20
-219.4057581378123
 30
0.0
  0
VERTEX
  5
309
330
307
100
AcDbEntity
  8
Layer 1
 62
   250
420
  2301728
370
    70
100
AcDbVertex
100
AcDb2dVertex
 10
16.42157617611088
 20
-213.9563654109024
 30
0.0
  0
VERTEX
  5
30A
330
307
100
AcDbEntity
  8
Layer 1
 62
   250
420
  2301728
370
    70
100
AcDbVertex
100
AcDb2dVertex
 10
4.896341361611332
 20
-94.86173227729192
 30
0.0
  0
VERTEX
  5
30B
330
307
100
AcDbEntity
  8
Layer 1
 62
   250
420
  2301728
370
    70
100
AcDbVertex
100
AcDb2dVertex
 10
30.58367592987174
 20
-90.96930497804352
 30
0.0
  0
SEQEND
  5
30C
330
307
100
AcDbEntity
  8
Layer 1
 62
   250
420
  2301728
370
    70
  0
POLYLINE
  5
30D
330
41
100
AcDbEntity
  8
Layer 1
 62
   250
420
  2301728
370
    70
100
AcDb2dPolyline
 66
     1
 10
0.0
 20
0.0
 30
0.0
  0
VERTEX
  5
30E
330
30D
100
AcDbEntity
  8
Layer 1
 62
   250
420
  2301728
370
    70
100
AcDbVertex
100
AcDb2dVertex
 10
159.0190856023434
 20
-219.4057581378123
 30
0.0
  0
VERTEX
  5
30F
330
30D
100
AcDbEntity
  8
Layer 1
 62
   250
420
  2301728
370
    70
100
AcDbVertex
100
AcDb2dVertex
 10
173.180910754184
 20
-213.9563654109024
 30
0.0
  0
VERTEX
  5
310
330
30D
100
AcDbEntity
  8
Layer 1
 62
   250
420
  2301728
370
    70
100
AcDbVertex
100
AcDb2dVertex
 10
184.706694772524
 20
-94.86173227729192
 30
0.0
  0
VERTEX
  5
311
330
30D
100
AcDbEntity
  8
Layer 1
 62
   250
420
  2301728
370
    70
100
AcDbVertex
100
AcDb2dVertex
 10
159.0190856023434
 20
-90.96930497804352
 30
0.0
  0
SEQEND
  5
312
330
30D
100
AcDbEntity
  8
Layer 1
 62
   250
420
  2301728
370
    70
  0
POLYLINE
  5
313
330
41
100
AcDbEntity
  8
Layer 1
 62
   142
420
    35279
370
    35
100
AcDb2dPolyline
 66
     1
 10
0.0
 20
0.0
 30
0.0
  0
VERTEX
  5
314
330
313
100
AcDbEntity
  8
Layer 1
 62
   142
420
    35279
370
    35
100
AcDbVertex
100
AcDb2dVertex
 10
11.13414366176858
 20
-81.72400752685509
 30
0.0
  0
VERTEX
  5
315
330
313
100
AcDbEntity
  8
Layer 1
 62
   142
420
    35279
370
    35
100
AcDbVertex
100
AcDb2dVertex
 10
22.55640275617224
 20
-81.72400752685509
 30
0.0
  0
SEQEND
  5
316
330
313
100
AcDbEntity
  8
Layer 1
 62
   142
420
    35279
370
    35
  0
POLYLINE
  5
317
330
41
100
AcDbEntity
  8
Layer 1
 62
   142
420
    35279
370
    35
100
AcDb2dPolyline
 66
     1
 10
0.0
 20
0.0
 30
0.0
  0
VERTEX
  5
318
330
317
100
AcDbEntity
  8
Layer 1
 62
   142
420
    35279
370
    35
100
AcDbVertex
100
AcDb2dVertex
 10
11.13414366176858
 20
-80.35635266301907
 30
0.0
  0
VERTEX
  5
319
330
317
100
AcDbEntity
  8
Layer 1
 62
   142
420
    35279
370
    35
100
AcDbVertex
100
AcDb2dVertex
 10
20.85247038079001
 20
-80.35635266301907
 30
0.0
  0
SEQEND
  5
31A
330
317
100
AcDbEntity
  8
Layer 1
 62
   142
420
    35279
370
    35
  0
POLYLINE
  5
31B
330
41
100
AcDbEntity
  8
Layer 1
 62
   142
420
    35279
370
    35
100
AcDb2dPolyline
 66
     1
 10
0.0
 20
0.0
 30
0.0
  0
VERTEX
  5
31C
330
31B
100
AcDbEntity
  8
Layer 1
 62
   142
420
    35279
370
    35
100
AcDbVertex
100
AcDb2dVertex
 10
11.13414366176858
 20
-78.9889724011026
 30
0.0
  0
VERTEX
  5
31D
330
31B
100
AcDbEntity
  8
Layer 1
 62
   142
420
    35279
370
    35
100
AcDbVertex
100
AcDb2dVertex
 10
19.14853800540778
 20
-78.9889724011026
 30
0.0
  0
SEQEND
  5
31E
330
31B
100
AcDbEntity
  8
Layer 1
 62
   142
420
    35279
370
    35
  0
POLYLINE
  5
31F
330
41
100
AcDbEntity
  8
Layer 1
 62
   142
420
    35279
370
    35
100
AcDb2dPolyline
 66
     1
 10
0.0
 20
0.0
 30
0.0
  0
VERTEX
  5
320
330
31F
100
AcDbEntity
  8
Layer 1
 62
   142
420
    35279
370
    35
100
AcDbVertex
100
AcDb2dVertex
 10
11.13414366176858
 20
-77.62159213918615
 30
0.0
  0
VERTEX
  5
321
330
31F
100
AcDbEntity
  8
Layer 1
 62
   142
420
    35279
370
    35
100
AcDbVertex
100
AcDb2dVertex
 10
17.44435848829767
 20
-77.62159213918615
 30
0.0
  0
SEQEND
  5
322
330
31F
100
AcDbEntity
  8
Layer 1
 62
   142
420
    35279
370
    35
  0
POLYLINE
  5
323
330
41
100
AcDbEntity
  8
Layer 1
 62
   142
420
    35279
370
    35
100
AcDb2dPolyline
 66
     1
 10
0.0
 20
0.0
 30
0.0
  0
VERTEX
  5
324
330
323
100
AcDbEntity
  8
Layer 1
 62
   142
420
    35279
370
    35
100
AcDbVertex
100
AcDb2dVertex
 10
11.13414366176858
 20
-76.25396473554247
 30
0.0
  0
VERTEX
  5
325
330
323
100
AcDbEntity
  8
Layer 1
 62
   142
420
    35279
370
    35
100
AcDbVertex
100
AcDb2dVertex
 10
15.73987690907501
 20
-76.25396473554247
 30
0.0
  0
SEQEND
  5
326
330
323
100
AcDbEntity
  8
Layer 1
 62
   142
420
    35279
370
    35
  0
POLYLINE
  5
327
330
41
100
AcDbEntity
  8
Layer 1
 62
   142
420
    35279
370
    35
100
AcDb2dPolyline
 66
     1
 10
0.0
 20
0.0
 30
0.0
  0
VERTEX
  5
328
330
327
100
AcDbEntity
  8
Layer 1
 62
   142
420
    35279
370
    35
100
AcDbVertex
100
AcDb2dVertex
 10
11.13414366176858
 20
-74.88710621727473
 30
0.0
  0
VERTEX
  5
329
330
327
100
AcDbEntity
  8
Layer 1
 62
   142
420
    35279
370
    35
100
AcDbVertex
100
AcDb2dVertex
 10
14.03569739196426
 20
-74.88710621727473
 30
0.0
  0
SEQEND
  5
32A
330
327
100
AcDbEntity
  8
Layer 1
 62
   142
420
    35279
370
    35
  0
POLYLINE
  5
32B
330
41
100
AcDbEntity
  8
Layer 1
 62
   142
420
    35279
370
    35
100
AcDb2dPolyline
 66
     1
 10
0.0
 20
0.0
 30
0.0
  0
VERTEX
  5
32C
330
32B
100
AcDbEntity
  8
Layer 1
 62
   142
420
    35279
370
    35
100
AcDbVertex
100
AcDb2dVertex
 10
11.13414366176858
 20
-73.51920421171019
 30
0.0
  0
VERTEX
  5
32D
330
32B
100
AcDbEntity
  8
Layer 1
 62
   142
420
    35279
370
    35
100
AcDbVertex
100
AcDb2dVertex
 10
12.33149041466246
 20
-73.51920421171019
 30
0.0
  0
SEQEND
  5
32E
330
32B
100
AcDbEntity
  8
Layer 1
 62
   142
420
    35279
370
    35
  0
SPLINE
  5
32F
330
41
100
AcDbEntity
  8
Layer 1
 62
   142
420
    35279
370
    35
100
AcDbSpline
210
0.0
220
0.0
230
1.0
 70
     8
 71
     3
 72
   128
 73
   124
 74
     0
 42
0.0000000001
 43
0.0000000001
 12
1.0
 22
0.0
 32
0.0
 13
1.0
 23
0.0
 33
0.0
 40
0.0
 40
0.0
 40
0.0
 40
0.0
 40
1.0
 40
1.0
 40
1.0
 40
2.0
 40
2.0
 40
2.0
 40
3.0
 40
3.0
 40
3.0
 40
4.0
 40
4.0
 40
4.0
 40
5.0
 40
5.0
 40
5.0
 40
6.0
 40
6.0
 40
6.0
 40
7.0
 40
7.0
 40
7.0
 40
8.0
 40
8.0
 40
8.0
 40
9.0
 40
9.0
 40
9.0
 40
10.0
 40
10.0
 40
10.0
 40
11.0
 40
11.0
 40
11.0
 40
12.0
 40
12.0
 40
12.0
 40
13.0
 40
13.0
 40
13.0
 40
14.0
 40
14.0
 40
14.0
 40
15.0
 40
15.0
 40
15.0
 40
16.0
 40
16.0
 40
16.0
 40
17.0
 40
17.0
 40
17.0
 40
18.0
 40
18.0
 40
18.0
 40
19.0
 40
19.0
 40
19.0
 40
20.0
 40
20.0
 40
20.0
 40
21.0
 40
21.0
 40
21.0
 40
22.0
 40
22.0
 40
22.0
 40
23.0
 40
23.0
 40
23.0
 40
24.0
 40
24.0
 40
24.0
 40
25.0
 40
25.0
 40
25.0
 40
26.0
 40
26.0
 40
26.0
 40
27.0
 40
27.0
 40
27.0
 40
28.0
 40
28.0
 40
28.0
 40
29.0
 40
29.0
 40
29.0
 40
30.0
 40
30.0
 40
30.0
 40
31.0
 40
31.0
 40
31.0
 40
32.0
 40
32.0
 40
32.0
 40
33.0
 40
33.0
 40
33.0
 40
34.0
 40
34.0
 40
34.0
 40
35.0
 40
35.0
 40
35.0
 40
36.0
 40
36.0
 40
36.0
 40
37.0
 40
37.0
 40
37.0
 40
38.0
 40
38.0
 40
38.0
 40
39.0
 40
39.0
 40
39.0
 40
40.0
 40
40.0
 40
40.0
 40
41.0
 40
41.0
 40
41.0
 40
41.0
 10
10.82442015591131
 20
-72.3100495762458
 30
0.0
 10
11.8560446499303
 20
-72.33177058813766
 30
0.0
 10
12.87506491580918
 20
-72.55675194140386
 30
0.0
 10
13.82062916802006
 20
-72.97027497311767
 30
0.0
 10
14.57174780049711
 20
-73.3124289657571
 30
0.0
 10
15.29150689367986
 20
-73.72326089865217
 30
0.0
 10
15.96889491056868
 20
-74.19497207726879
 30
0.0
 10
16.42800186104519
 20
-74.46529020756851
 30
0.0
 10
16.92170865347387
 20
-74.67417988830756
 30
0.0
 10
17.43524170454526
 20
-74.81551749666355
 30
0.0
 10
17.90695288316122
 20
-74.98285990686738
 30
0.0
 10
18.43012446163375
 20
-74.85333018108255
 30
0.0
 10
18.76854386815763
 20
-74.48514392640291
 30
0.0
 10
19.2925392523908
 20
-73.41999053792091
 30
0.0
 10
19.60684861031597
 20
-72.26042900925499
 30
0.0
 10
19.6931834540443
 20
-71.07672997179867
 30
0.0
 10
19.6931834540443
 20
-71.07672997179867
 30
0.0
 10
24.2187604008282
 20
-82.93423310980864
 30
0.0
 10
24.2187604008282
 20
-82.93423310980864
 30
0.0
 10
24.23779031390131
 20
-82.98492462428797
 30
0.0
 10
24.25228929529122
 20
-83.03748343182475
 30
0.0
 10
24.26113147712341
 20
-83.09111318685135
 30
0.0
 10
24.26113147712341
 20
-83.09111318685135
 30
0.0
 10
11.13414366176858
 20
-83.09111318685135
 30
0.0
 10
11.13414366176858
 20
-83.09111318685135
 30
0.0
 10
11.454329500787
 20
-83.01845351875099
 30
0.0
 10
11.68065640346257
 20
-82.73632750587946
 30
0.0
 10
11.681205607303
 20
-82.40729948502886
 30
0.0
 10
11.68065640346257
 20
-82.07851860590611
 30
0.0
 10
11.454329500787
 20
-81.79694179687502
 30
0.0
 10
11.13414366176858
 20
-81.72400752685509
 30
0.0
 10
10.81368322082931
 20
-81.65159500048391
 30
0.0
 10
10.58708171623417
 20
-81.36867264204344
 30
0.0
 10
10.5865325123931
 20
-81.04044096676112
 30
0.0
 10
10.58708171623417
 20
-80.71168754783008
 30
0.0
 10
10.8134086189091
 20
-80.42903979131047
 30
0.0
 10
11.13386905984837
 20
-80.35635266301907
 30
0.0
 10
11.454329500787
 20
-80.28394013664723
 30
0.0
 10
11.68065640346257
 20
-80.00129238012761
 30
0.0
 10
11.681205607303
 20
-79.67281356311679
 30
0.0
 10
11.68065640346257
 20
-79.34430728591427
 30
0.0
 10
11.454329500787
 20
-79.06165952939466
 30
0.0
 10
11.13414366176858
 20
-78.9889724011026
 30
0.0
 10
10.81368322082931
 20
-78.91658733492312
 30
0.0
 10
10.58708171623417
 20
-78.63366497648329
 30
0.0
 10
10.5865325123931
 20
-78.30543330120098
 30
0.0
 10
10.58708171623417
 20
-77.97665242207825
 30
0.0
 10
10.8134086189091
 20
-77.69400466555798
 30
0.0
 10
11.13386905984837
 20
-77.62159213918615
 30
0.0
 10
11.454329500787
 20
-77.54920707300666
 30
0.0
 10
11.68065640346257
 20
-77.26655931648769
 30
0.0
 10
11.681205607303
 20
-76.93805303928453
 30
0.0
 10
11.68065640346257
 20
-76.60927216016178
 30
0.0
 10
11.454329500787
 20
-76.32717360748259
 30
0.0
 10
11.13414366176858
 20
-76.25421187727034
 30
0.0
 10
10.81368322082931
 20
-76.18155220917063
 30
0.0
 10
10.58708171623417
 20
-75.89890445265037
 30
0.0
 10
10.5865325123931
 20
-75.5706727773687
 30
0.0
 10
10.58708171623417
 20
-75.2424411020864
 30
0.0
 10
10.8134086189091
 20
-74.95951874364593
 30
0.0
 10
11.13386905984837
 20
-74.88710621727473
 30
0.0
 10
11.454329500787
 20
-74.81417194725417
 30
0.0
 10
11.68065640346257
 20
-74.53152419073456
 30
0.0
 10
11.681205607303
 20
-74.20301791353204
 30
0.0
 10
11.68065640346257
 20
-73.87478623824973
 30
0.0
 10
11.454329500787
 20
-73.5921384817301
 30
0.0
 10
11.13414366176858
 20
-73.51920421171019
 30
0.0
 10
10.87697896344874
 20
-73.46153780845613
 30
0.0
 10
10.67424036572314
 20
-73.26525235585653
 30
0.0
 10
10.60907733004625
 20
-73.00968034867458
 30
0.0
 10
10.594578348657
 20
-72.95311235310137
 30
0.0
 10
10.5865325123931
 20
-72.89464960427901
 30
0.0
 10
10.5865325123931
 20
-72.835363049696
 30
0.0
 10
10.5865325123931
 20
-72.6345192052202
 30
0.0
 10
10.67316941823462
 20
-72.44279214449746
 30
0.0
 10
10.8241455539911
 20
-72.3100495762458
 30
0.0
 10
10.92953777098552
 20
-72.5924227308452
 30
0.0
 10
11.18052392609958
 20
-72.79354117724121
 30
0.0
 10
11.47898875322612
 20
-72.835363049696
 30
0.0
 10
11.89707017681678
 20
-72.81498758721287
 30
0.0
 10
12.26152184538086
 20
-73.1067521274849
 30
0.0
 10
12.33149041466246
 20
-73.51920421171019
 30
0.0
 10
12.40148644413576
 20
-73.9316288357425
 30
0.0
 10
12.7659381126992
 20
-74.2239425798556
 30
0.0
 10
13.18347033244878
 20
-74.20301791353204
 30
0.0
 10
13.60127715411923
 20
-74.18236784912868
 30
0.0
 10
13.96570136249096
 20
-74.47468159324178
 30
0.0
 10
14.03569739196426
 20
-74.88710621727473
 30
0.0
 10
14.10569342143757
 20
-75.29900909765895
 30
0.0
 10
14.47011762980994
 20
-75.59104823985184
 30
0.0
 10
14.88792445147974
 20
-75.57012357352764
 30
0.0
 10
15.30545667122933
 20
-75.54947350912492
 30
0.0
 10
15.67015548152192
 20
-75.84151265131716
 30
0.0
 10
15.73987690907501
 20
-76.25396473554247
 30
0.0
 10
15.8096257968198
 20
-76.66611475765455
 30
0.0
 10
16.17432460711239
 20
-76.95870310368787
 30
0.0
 10
16.59213142878219
 20
-76.93750383544409
 30
0.0
 10
17.00966364853178
 20
-76.91685377104073
 30
0.0
 10
17.37408785690415
 20
-77.20916751515384
 30
0.0
 10
17.44435848829767
 20
-77.62159213918615
 30
0.0
 10
17.51407991585076
 20
-78.03376962149123
 30
0.0
 10
17.87877872614335
 20
-78.32608336560368
 30
0.0
 10
18.29631094589229
 20
-78.30543330120098
 30
0.0
 10
18.71411776756274
 20
-78.28450863487677
 30
0.0
 10
19.07829483420596
 20
-78.57654777706965
 30
0.0
 10
19.14853800540778
 20
-78.9889724011026
 30
0.0
 10
19.21853403488108
 20
-79.40142448532727
 30
0.0
 10
19.58243649960472
 20
-79.69371076924865
 30
0.0
 10
19.99996871935431
 20
-79.67281356311679
 30
0.0
 10
20.41777554102476
 20
-79.65109255122428
 30
0.0
 10
20.78222720958883
 20
-79.94310423322483
 30
0.0
 10
20.85247038079001
 20
-80.35555631745012
 30
0.0
 10
20.92191720642288
 20
-80.76745919783434
 30
0.0
 10
21.28557252941865
 20
-81.06029468559554
 30
0.0
 10
21.70335189089676
 20
-81.04044096676112
 30
0.0
 10
22.12091157083804
 20
-81.01871995486862
 30
0.0
 10
22.48613212477872
 20
-81.30996275149255
 30
0.0
 10
22.55640275617224
 20
-81.72238737552551
 30
0.0
 10
22.6255749798849
 20
-82.13483945975081
 30
0.0
 10
22.98895570095981
 20
-82.42740034559178
 30
0.0
 10
23.40621331878983
 20
-82.40782122867758
 30
0.0
 10
23.76206994724958
 20
-82.38799497003487
 30
0.0
 10
24.08843432947378
 20
-82.5990265457516
 30
0.0
 10
24.21768945333839
 20
-82.9315420109899
 30
0.0
  0
ENDBLK
  5
44
330
41
100
AcDbEntity
  8
0
100
AcDbBlockEnd
  0
BLOCK
  5
47
330
45
100
AcDbEntity
  8
0
100
AcDbBlockBegin
  2
block 3
 70
     0
 10
0.0
 20
0.0
 30
0.0
  3
block 3
  1

  0
INSERT
  5
4A
330
45
100
AcDbEntity
  8
Layer 1
100
AcDbBlockReference
  2
block 4
 10
0.0
 20
0.0
 30
0.0
  0
ENDBLK
  5
48
330
45
100
AcDbEntity
  8
0
100
AcDbBlockEnd
  0
BLOCK
  5
4B
330
49
100
AcDbEntity
  8
0
100
AcDbBlockBegin
  2
block 4
 70
     0
 10
0.0
 20
0.0
 30
0.0
  3
block 4
  1

  0
INSERT
  5
4E
330
49
100
AcDbEntity
  8
Layer 1
100
AcDbBlockReference
  2
block 5
 10
0.0
 20
0.0
 30
0.0
  0
ENDBLK
  5
4C
330
49
100
AcDbEntity
  8
0
100
AcDbBlockEnd
  0
BLOCK
  5
4F
330
4D
100
AcDbEntity
  8
0
100
AcDbBlockBegin
  2
block 5
 70
     0
 10
0.0
 20
0.0
 30
0.0
  3
block 5
  1

  0
MTEXT
  5
51
330
4D
100
AcDbEntity
  8
Layer 1
 62
   142
420
    35279
100
AcDbMText
 10
57.43835447782791
 20
-245.7159233326682
 30
0.0
 40
7.776726752689404
 41
0.0
 46
0.0
 71
     7
 72
     1
  1
\fArial|b0|i0|c0|p34;\W1;PRINTED SIDE
 73
     1
 44
1.0
  0
ENDBLK
  5
50
330
4D
100
AcDbEntity
  8
0
100
AcDbBlockEnd
  0
BLOCK
  5
62
330
60
100
AcDbEntity
  8
0
100
AcDbBlockBegin
  2
block 6
 70
     0
 10
0.0
 20
0.0
 30
0.0
  3
block 6
  1

  0
MTEXT
  5
64
330
60
100
AcDbEntity
  8
Layer 1
 62
   142
420
    35279
100
AcDbMText
 10
200.5221272285153
 20
-150.3370767853324
 30
0.0
 40
1.944181688172351
 41
0.0
 46
0.0
 71
     7
 72
     1
  1
\fArial|b0|i0|c0|p34;\W1;216
 73
     1
 44
1.0
  0
ENDBLK
  5
63
330
60
100
AcDbEntity
  8
0
100
AcDbBlockEnd
  0
BLOCK
  5
83
330
81
100
AcDbEntity
  8
0
100
AcDbBlockBegin
  2
block 7
 70
     0
 10
0.0
 20
0.0
 30
0.0
  3
block 7
  1

  0
MTEXT
  5
85
330
81
100
AcDbEntity
  8
Layer 1
 62
   142
420
    35279
100
AcDbMText
 10
92.59348684751136
 20
-50.46289739406831
 30
0.0
 40
1.944181688172351
 41
0.0
 46
0.0
 71
     7
 72
     1
  1
\fArial|b0|i0|c0|p34;\W1;231
 73
     1
 44
1.0
  0
ENDBLK
  5
84
330
81
100
AcDbEntity
  8
0
100
AcDbBlockEnd
  0
BLOCK
  5
A4
330
A2
100
AcDbEntity
  8
0
100
AcDbBlockBegin
  2
block 8
 70
     0
 10
0.0
 20
0.0
 30
0.0
  3
block 8
  1

  0
MTEXT
  5
A6
330
A2
100
AcDbEntity
  8
Layer 1
 62
   142
420
    35279
100
AcDbMText
 10
193.9506075904012
 20
-156.1751355946368
 30
0.0
 40
1.944181688172351
 41
0.0
 46
0.0
 71
     7
 72
     1
  1
\fArial|b0|i0|c0|p34;\W1;165
 73
     1
 44
1.0
  0
ENDBLK
  5
A5
330
A2
100
AcDbEntity
  8
0
100
AcDbBlockEnd
  0
BLOCK
  5
C5
330
C3
100
AcDbEntity
  8
0
100
AcDbBlockBegin
  2
block 9
 70
     0
 10
0.0
 20
0.0
 30
0.0
  3
block 9
  1

  0
MTEXT
  5
C7
330
C3
100
AcDbEntity
  8
Layer 1
 62
   142
420
    35279
100
AcDbMText
 10
92.59348684751136
 20
-57.12915715802674
 30
0.0
 40
1.944181688172351
 41
0.0
 46
0.0
 71
     7
 72
     1
  1
\fArial|b0|i0|c0|p34;\W1;165
 73
     1
 44
1.0
  0
ENDBLK
  5
C6
330
C3
100
AcDbEntity
  8
0
100
AcDbBlockEnd
  0
BLOCK
  5
E2
330
E0
100
AcDbEntity
  8
0
100
AcDbBlockBegin
  2
block 10
 70
     0
 10
0.0
 20
0.0
 30
0.0
  3
block 10
  1

  0
MTEXT
  5
E4
330
E0
100
AcDbEntity
  8
Layer 1
 62
   142
420
    35279
100
AcDbMText
 10
194.7095621258018
 20
-79.11368948760006
 30
0.0
 40
1.944181688172351
 41
0.0
 46
0.0
 71
     7
 72
     1
  1
\fArial|b0|i0|c0|p34;\W1;33
 73
     1
 44
1.0
  0
ENDBLK
  5
E3
330
E0
100
AcDbEntity
  8
0
100
AcDbBlockEnd
  0
BLOCK
  5
FB
330
F9
100
AcDbEntity
  8
0
100
AcDbBlockBegin
  2
block 11
 70
     0
 10
0.0
 20
0.0
 30
0.0
  3
block 11
  1

  0
MTEXT
  5
FD
330
F9
100
AcDbEntity
  8
Layer 1
 62
   142
420
    35279
100
AcDbMText
 10
194.967599777647
 20
-227.3983506375949
 30
0.0
 40
1.944181688172351
 41
0.0
 46
0.0
 71
     7
 72
     1
  1
\fArial|b0|i0|c0|p34;\W1;18
 73
     1
 44
1.0
  0
ENDBLK
  5
FC
330
F9
100
AcDbEntity
  8
0
100
AcDbBlockEnd
  0
BLOCK
  5
114
330
112
100
AcDbEntity
  8
0
100
AcDbBlockBegin
  2
block 12
 70
     0
 10
0.0
 20
0.0
 30
0.0
  3
block 12
  1

  0
MTEXT
  5
116
330
112
100
AcDbEntity
  8
Layer 1
 62
   142
420
    35279
100
AcDbMText
 10
170.4137152351744
 20
-56.87111950618153
 30
0.0
 40
1.944181688172351
 41
0.0
 46
0.0
 71
     7
 72
     1
  1
\fArial|b0|i0|c0|p34;\W1;33
 73
     1
 44
1.0
  0
ENDBLK
  5
115
330
112
100
AcDbEntity
  8
0
100
AcDbBlockEnd
  0
BLOCK
  5
12D
330
12B
100
AcDbEntity
  8
0
100
AcDbBlockBegin
  2
block 13
 70
     0
 10
0.0
 20
0.0
 30
0.0
  3
block 13
  1

  0
MTEXT
  5
12F
330
12B
100
AcDbEntity
  8
Layer 1
 62
   142
420
    35279
100
AcDbMText
 10
16.29099527587517
 20
-57.12915715802674
 30
0.0
 40
1.944181688172351
 41
0.0
 46
0.0
 71
     7
 72
     1
  1
\fArial|b0|i0|c0|p34;\W1;33
 73
     1
 44
1.0
  0
ENDBLK
  5
12E
330
12B
100
AcDbEntity
  8
0
100
AcDbBlockEnd
  0
ENDSEC
  0
SECTION
  2
ENTITIES
  0
INSERT
  5
42
330
1F
100
AcDbEntity
  8
Layer 1
100
AcDbBlockReference
  2
block 2
 10
0.0
 20
0.0
 30
0.0
  0
ENDSEC
  0
SECTION
  2
OBJECTS
  0
DICTIONARY
  5
C
330
0
100
AcDbDictionary
281
     1
  3
ACAD_GROUP
350
D
  3
ACAD_LAYOUT
350
1A
  3
ACAD_MATERIAL
350
3B
  3
ACAD_MLEADERSTYLE
350
331
  3
ACAD_MLINESTYLE
350
17
  3
ACAD_PLOTSETTINGS
350
19
  3
ACAD_PLOTSTYLENAME
350
E
  3
ACAD_TABLESTYLE
350
330
  3
ACAD_VISUALSTYLE
350
2A
  0
SUN
  5
3F
330
29
100
AcDbSun
 90
        1
290
     0
 63
     7
421
 16777215
 40
1.0
291
     1
 91
  2455826
 92
 54000000
292
     0
 70
     2
 71
   256
280
     1
  0
DICTIONARY
  5
D
102
{ACAD_REACTORS
330
C
102
}
330
C
100
AcDbDictionary
281
     1
  0
DICTIONARY
  5
1A
102
{ACAD_REACTORS
330
C
102
}
330
C
100
AcDbDictionary
281
     1
  3
Layout1
350
1E
  3
Layout2
350
26
  3
Model
350
22
  0
DICTIONARY
  5
3B
102
{ACAD_REACTORS
330
C
102
}
330
C
100
AcDbDictionary
281
     1
  3
ByBlock
350
3D
  3
ByLayer
350
3C
  3
Global
350
3E
  0
DICTIONARY
  5
331
102
{ACAD_REACTORS
330
C
102
}
330
C
100
AcDbDictionary
281
     1
  0
DICTIONARY
  5
17
102
{ACAD_REACTORS
330
C
102
}
330
C
100
AcDbDictionary
281
     1
  3
Standard
350
18
  0
DICTIONARY
  5
19
102
{ACAD_REACTORS
330
C
102
}
330
C
100
AcDbDictionary
281
     1
  0
ACDBDICTIONARYWDFLT
  5
E
102
{ACAD_REACTORS
330
C
102
}
330
C
100
AcDbDictionary
281
     1
  3
Normal
350
F
100
AcDbDictionaryWithDefault
340
F
  0
DICTIONARY
  5
330
102
{ACAD_REACTORS
330
C
102
}
330
C
100
AcDbDictionary
281
     1
  0
DICTIONARY
  5
2A
102
{ACAD_REACTORS
330
C
102
}
330
C
100
AcDbDictionary
281
     1
  3
2dWireframe
350
2F
  3
3D Hidden
350
31
  3
3dWireframe
350
30
  3
Basic
350
32
  3
Brighten
350
36
  3
ColorChange
350
3A
  3
Conceptual
350
34
  3
Dim
350
35
  3
Facepattern
350
39
  3
Flat
350
2B
  3
FlatWithEdges
350
2C
  3
Gouraud
350
2D
  3
GouraudWithEdges
350
2E
  3
Linepattern
350
38
  3
Realistic
350
33
  3
Thicken
350
37
  0
LAYOUT
  5
1E
102
{ACAD_REACTORS
330
1A
102
}
330
1A
100
AcDbPlotSettings
  1

  2
none_device
  4

  6

 40
0.0
 41
0.0
 42
0.0
 43
0.0
 44
0.0
 45
0.0
 46
0.0
 47
0.0
 48
0.0
 49
0.0
140
0.0
141
0.0
142
1.0
143
1.0
 70
   688
 72
     0
 73
     0
 74
     5
  7

 75
    16
 76
     0
 77
     2
 78
   300
147
1.0
148
0.0
149
0.0
100
AcDbLayout
  1
Layout1
 70
     1
 71
     1
 10
0.0
 20
0.0
 11
12.0
 21
9.0
 12
0.0
 22
0.0
 32
0.0
 14
1.000000000000000E+20
 24
1.000000000000000E+20
 34
1.000000000000000E+20
 15
-1.000000000000000E+20
 25
-1.000000000000000E+20
 35
-1.000000000000000E+20
146
0.0
 13
0.0
 23
0.0
 33
0.0
 16
1.0
 26
0.0
 36
0.0
 17
0.0
 27
1.0
 37
0.0
 76
     0
330
1B
  0
LAYOUT
  5
26
102
{ACAD_REACTORS
330
1A
102
}
330
1A
100
AcDbPlotSettings
  1

  2
none_device
  4

  6

 40
0.0
 41
0.0
 42
0.0
 43
0.0
 44
0.0
 45
0.0
 46
0.0
 47
0.0
 48
0.0
 49
0.0
140
0.0
141
0.0
142
1.0
143
1.0
 70
   688
 72
     0
 73
     0
 74
     5
  7

 75
    16
 76
     0
 77
     2
 78
   300
147
1.0
148
0.0
149
0.0
100
AcDbLayout
  1
Layout2
 70
     1
 71
     2
 10
0.0
 20
0.0
 11
0.0
 21
0.0
 12
0.0
 22
0.0
 32
0.0
 14
0.0
 24
0.0
 34
0.0
 15
0.0
 25
0.0
 35
0.0
146
0.0
 13
0.0
 23
0.0
 33
0.0
 16
1.0
 26
0.0
 36
0.0
 17
0.0
 27
1.0
 37
0.0
 76
     0
330
23
  0
LAYOUT
  5
22
102
{ACAD_REACTORS
330
1A
102
}
330
1A
100
AcDbPlotSettings
  1

  2
none_device
  4

  6

 40
0.0
 41
0.0
 42
0.0
 43
0.0
 44
0.0
 45
0.0
 46
0.0
 47
0.0
 48
0.0
 49
0.0
140
0.0
141
0.0
142
1.0
143
1.0
 70
  1712
 72
     0
 73
     0
 74
     0
  7

 75
     0
 76
     0
 77
     2
 78
   300
147
1.0
148
0.0
149
0.0
100
AcDbLayout
  1
Model
 70
     1
 71
     0
 10
0.0
 20
0.0
 11
12.0
 21
9.0
 12
0.0
 22
0.0
 32
0.0
 14
1.000000000000000E+20
 24
1.000000000000000E+20
 34
1.000000000000000E+20
 15
-1.000000000000000E+20
 25
-1.000000000000000E+20
 35
-1.000000000000000E+20
146
0.0
 13
0.0
 23
0.0
 33
0.0
 16
1.0
 26
0.0
 36
0.0
 17
0.0
 27
1.0
 37
0.0
 76
     0
330
1F
331
29
  0
MATERIAL
  5
3D
102
{ACAD_REACTORS
330
3B
102
}
330
3B
100
AcDbMaterial
  1
ByBlock
 72
     1
 94
      127
  0
MATERIAL
  5
3C
102
{ACAD_REACTORS
330
3B
102
}
330
3B
100
AcDbMaterial
  1
ByLayer
 72
     1
 94
      127
  0
MATERIAL
  5
3E
102
{ACAD_REACTORS
330
3B
102
}
330
3B
100
AcDbMaterial
  1
Global
 72
     1
 94
      127
  0
MLINESTYLE
  5
18
102
{ACAD_REACTORS
330
17
102
}
330
17
100
AcDbMlineStyle
  2
Standard
 70
     0
  3

 62
   256
 51
90.0
 52
90.0
 71
     2
 49
0.5
 62
   256
  6
BYLAYER
 49
-0.5
 62
   256
  6
BYLAYER
  0
ACDBPLACEHOLDER
  5
F
102
{ACAD_REACTORS
330
E
102
}
330
E
  0
VISUALSTYLE
  5
2F
102
{ACAD_REACTORS
330
2A
102
}
330
2A
100
AcDbVisualStyle
  2
2dWireframe
 70
     4
177
     2
291
     0
 71
     0
176
     1
 72
     2
176
     1
 73
     0
176
     1
 90
        0
176
     1
 40
-0.6
176
     1
 41
-30.0
176
     1
 62
     5
 63
     7
421
 16777215
176
     1
 74
     1
176
     1
 91
        4
176
     1
 64
     7
176
     1
 65
   257
176
     1
 75
     1
176
     1
175
     1
176
     1
 42
1.0
176
     1
 92
        0
176
     1
 66
   257
176
     1
 43
1.0
176
     1
 76
     1
176
     1
 77
     6
176
     1
 78
     2
176
     1
 67
     7
176
     1
 79
     5
176
     1
170
     0
176
     1
171
     0
176
     1
290
     0
176
     1
 93
        1
176
     1
 44
0.0
176
     1
173
     0
176
     1
  0
VISUALSTYLE
  5
31
102
{ACAD_REACTORS
330
2A
102
}
330
2A
100
AcDbVisualStyle
  2
3D Hidden
 70
     6
177
     2
291
     0
 71
     1
176
     1
 72
     2
176
     1
 73
     2
176
     1
 90
        0
176
     1
 40
-0.6
176
     1
 41
-30.0
176
     1
 62
     5
 63
     7
421
 16777215
176
     1
 74
     2
176
     1
 91
        2
176
     1
 64
     7
176
     1
 65
   257
176
     1
 75
     2
176
     1
175
     1
176
     1
 42
40.0
176
     1
 92
        0
176
     1
 66
   257
176
     1
 43
1.0
176
     1
 76
     1
176
     1
 77
     6
176
     1
 78
     2
176
     1
 67
     7
176
     1
 79
     3
176
     1
170
     0
176
     1
171
     0
176
     1
290
     0
176
     1
 93
        1
176
     1
 44
0.0
176
     1
173
     0
176
     1
  0
VISUALSTYLE
  5
30
102
{ACAD_REACTORS
330
2A
102
}
330
2A
100
AcDbVisualStyle
  2
3dWireframe
 70
     5
177
     2
291
     0
 71
     0
176
     1
 72
     2
176
     1
 73
     0
176
     1
 90
        0
176
     1
 40
-0.6
176
     1
 41
-30.0
176
     1
 62
     5
 63
     7
421
 16777215
176
     1
 74
     1
176
     1
 91
        4
176
     1
 64
     7
176
     1
 65
   257
176
     1
 75
     1
176
     1
175
     1
176
     1
 42
1.0
176
     1
 92
        0
176
     1
 66
   257
176
     1
 43
1.0
176
     1
 76
     1
176
     1
 77
     6
176
     1
 78
     2
176
     1
 67
     7
176
     1
 79
     5
176
     1
170
     0
176
     1
171
     0
176
     1
290
     0
176
     1
 93
        1
176
     1
 44
0.0
176
     1
173
     0
176
     1
  0
VISUALSTYLE
  5
32
102
{ACAD_REACTORS
330
2A
102
}
330
2A
100
AcDbVisualStyle
  2
Basic
 70
     7
177
     2
291
     1
 71
     1
176
     1
 72
     0
176
     1
 73
     1
176
     1
 90
        0
176
     1
 40
-0.6
176
     1
 41
-30.0
176
     1
 62
     5
 63
     7
421
 16777215
176
     1
 74
     0
176
     1
 91
        4
176
     1
 64
     7
176
     1
 65
   257
176
     1
 75
     1
176
     1
175
     1
176
     1
 42
1.0
176
     1
 92
        8
176
     1
 66
     7
176
     1
 43
1.0
176
     1
 76
     1
176
     1
 77
     6
176
     1
 78
     2
176
     1
 67
     7
176
     1
 79
     5
176
     1
170
     0
176
     1
171
     0
176
     1
290
     0
176
     1
 93
        1
176
     1
 44
0.0
176
     1
173
     0
176
     1
  0
VISUALSTYLE
  5
36
102
{ACAD_REACTORS
330
2A
102
}
330
2A
100
AcDbVisualStyle
  2
Brighten
 70
    12
177
     2
291
     1
 71
     2
176
     1
 72
     2
176
     1
 73
     0
176
     1
 90
        0
176
     1
 40
-0.6
176
     1
 41
-30.0
176
     1
 62
     5
 63
     7
421
 16777215
176
     1
 74
     1
176
     1
 91
        4
176
     1
 64
     7
176
     1
 65
   257
176
     1
 75
     1
176
     1
175
     1
176
     1
 42
1.0
176
     1
 92
        8
176
     1
 66
     7
176
     1
 43
1.0
176
     1
 76
     1
176
     1
 77
     6
176
     1
 78
     2
176
     1
 67
     7
176
     1
 79
     5
176
     1
170
     0
176
     1
171
     0
176
     1
290
     0
176
     1
 93
        1
176
     1
 44
50.0
176
     1
173
     0
176
     1
  0
VISUALSTYLE
  5
3A
102
{ACAD_REACTORS
330
2A
102
}
330
2A
100
AcDbVisualStyle
  2
ColorChange
 70
    16
177
     2
291
     1
 71
     2
176
     1
 72
     2
176
     1
 73
     3
176
     1
 90
        0
176
     1
 40
-0.6
176
     1
 41
-30.0
176
     1
 62
     5
 63
     8
421
  8421504
176
     1
 74
     1
176
     1
 91
        4
176
     1
 64
     7
176
     1
 65
   257
176
     1
 75
     1
176
     1
175
     1
176
     1
 42
1.0
176
     1
 92
        8
176
     1
 66
     8
424
  8421504
176
     1
 43
1.0
176
     1
 76
     1
176
     1
 77
     6
176
     1
 78
     2
176
     1
 67
     7
176
     1
 79
     5
176
     1
170
     0
176
     1
171
     0
176
     1
290
     0
176
     1
 93
        1
176
     1
 44
0.0
176
     1
173
     0
176
     1
  0
VISUALSTYLE
  5
34
102
{ACAD_REACTORS
330
2A
102
}
330
2A
100
AcDbVisualStyle
  2
Conceptual
 70
     9
177
     2
291
     0
 71
     3
176
     1
 72
     2
176
     1
 73
     0
176
     1
 90
        0
176
     1
 40
-0.6
176
     1
 41
-30.0
176
     1
 62
     5
 63
     7
421
 16777215
176
     1
 74
     2
176
     1
 91
        2
176
     1
 64
     7
176
     1
 65
   257
176
     1
 75
     1
176
     1
175
     1
176
     1
 42
40.0
176
     1
 92
        8
176
     1
 66
     7
176
     1
 43
1.0
176
     1
 76
     1
176
     1
 77
     6
176
     1
 78
     2
176
     1
 67
     7
176
     1
 79
     3
176
     1
170
     0
176
     1
171
     0
176
     1
290
     0
176
     1
 93
        1
176
     1
 44
0.0
176
     1
173
     0
176
     1
  0
VISUALSTYLE
  5
35
102
{ACAD_REACTORS
330
2A
102
}
330
2A
100
AcDbVisualStyle
  2
Dim
 70
    11
177
     2
291
     1
 71
     2
176
     1
 72
     2
176
     1
 73
     0
176
     1
 90
        0
176
     1
 40
-0.6
176
     1
 41
-30.0
176
     1
 62
     5
 63
     7
421
 16777215
176
     1
 74
     1
176
     1
 91
        4
176
     1
 64
     7
176
     1
 65
   257
176
     1
 75
     1
176
     1
175
     1
176
     1
 42
1.0
176
     1
 92
        8
176
     1
 66
     7
176
     1
 43
1.0
176
     1
 76
     1
176
     1
 77
     6
176
     1
 78
     2
176
     1
 67
     7
176
     1
 79
     5
176
     1
170
     0
176
     1
171
     0
176
     1
290
     0
176
     1
 93
        1
176
     1
 44
-50.0
176
     1
173
     0
176
     1
  0
VISUALSTYLE
  5
39
102
{ACAD_REACTORS
330
2A
102
}
330
2A
100
AcDbVisualStyle
  2
Facepattern
 70
    15
177
     2
291
     1
 71
     2
176
     1
 72
     2
176
     1
 73
     0
176
     1
 90
        0
176
     1
 40
-0.6
176
     1
 41
-30.0
176
     1
 62
     5
 63
     7
421
 16777215
176
     1
 74
     1
176
     1
 91
        4
176
     1
 64
     7
176
     1
 65
   257
176
     1
 75
     1
176
     1
175
     1
176
     1
 42
1.0
176
     1
 92
        8
176
     1
 66
     7
176
     1
 43
1.0
176
     1
 76
     1
176
     1
 77
     6
176
     1
 78
     2
176
     1
 67
     7
176
     1
 79
     5
176
     1
170
     0
176
     1
171
     0
176
     1
290
     0
176
     1
 93
        1
176
     1
 44
0.0
176
     1
173
     0
176
     1
  0
VISUALSTYLE
  5
2B
102
{ACAD_REACTORS
330
2A
102
}
330
2A
100
AcDbVisualStyle
  2
Flat
 70
     0
177
     2
291
     1
 71
     2
176
     1
 72
     1
176
     1
 73
     1
176
     1
 90
        2
176
     1
 40
-0.6
176
     1
 41
30.0
176
     1
 62
     5
 63
     7
421
 16777215
176
     1
 74
     0
176
     1
 91
        4
176
     1
 64
     7
176
     1
 65
   257
176
     1
 75
     1
176
     1
175
     1
176
     1
 42
1.0
176
     1
 92
        8
176
     1
 66
     7
176
     1
 43
1.0
176
     1
 76
     1
176
     1
 77
     6
176
     1
 78
     2
176
     1
 67
     7
176
     1
 79
     5
176
     1
170
     0
176
     1
171
     0
176
     1
290
     0
176
     1
 93
       13
176
     1
 44
0.0
176
     1
173
     0
176
     1
  0
VISUALSTYLE
  5
2C
102
{ACAD_REACTORS
330
2A
102
}
330
2A
100
AcDbVisualStyle
  2
FlatWithEdges
 70
     1
177
     2
291
     1
 71
     2
176
     1
 72
     1
176
     1
 73
     1
176
     1
 90
        2
176
     1
 40
-0.6
176
     1
 41
30.0
176
     1
 62
     5
 63
     7
421
 16777215
176
     1
 74
     1
176
     1
 91
        4
176
     1
 64
     7
176
     1
 65
   257
176
     1
 75
     1
176
     1
175
     1
176
     1
 42
1.0
176
     1
 92
        0
176
     1
 66
   257
176
     1
 43
1.0
176
     1
 76
     1
176
     1
 77
     6
176
     1
 78
     2
176
     1
 67
     7
176
     1
 79
     5
176
     1
170
     0
176
     1
171
     0
176
     1
290
     0
176
     1
 93
       13
176
     1
 44
0.0
176
     1
173
     0
176
     1
  0
VISUALSTYLE
  5
2D
102
{ACAD_REACTORS
330
2A
102
}
330
2A
100
AcDbVisualStyle
  2
Gouraud
 70
     2
177
     2
291
     1
 71
     2
176
     1
 72
     2
176
     1
 73
     1
176
     1
 90
        2
176
     1
 40
-0.6
176
     1
 41
30.0
176
     1
 62
     5
 63
     7
421
 16777215
176
     1
 74
     0
176
     1
 91
        4
176
     1
 64
     7
176
     1
 65
   257
176
     1
 75
     1
176
     1
175
     1
176
     1
 42
1.0
176
     1
 92
        0
176
     1
 66
     7
176
     1
 43
1.0
176
     1
 76
     1
176
     1
 77
     6
176
     1
 78
     2
176
     1
 67
     7
176
     1
 79
     5
176
     1
170
     0
176
     1
171
     0
176
     1
290
     0
176
     1
 93
       13
176
     1
 44
0.0
176
     1
173
     0
176
     1
  0
VISUALSTYLE
  5
2E
102
{ACAD_REACTORS
330
2A
102
}
330
2A
100
AcDbVisualStyle
  2
GouraudWithEdges
 70
     3
177
     2
291
     1
 71
     2
176
     1
 72
     2
176
     1
 73
     1
176
     1
 90
        2
176
     1
 40
-0.6
176
     1
 41
30.0
176
     1
 62
     5
 63
     7
421
 16777215
176
     1
 74
     1
176
     1
 91
        4
176
     1
 64
     7
176
     1
 65
   257
176
     1
 75
     1
176
     1
175
     1
176
     1
 42
1.0
176
     1
 92
        0
176
     1
 66
   257
176
     1
 43
1.0
176
     1
 76
     1
176
     1
 77
     6
176
     1
 78
     2
176
     1
 67
     7
176
     1
 79
     5
176
     1
170
     0
176
     1
171
     0
176
     1
290
     0
176
     1
 93
       13
176
     1
 44
0.0
176
     1
173
     0
176
     1
  0
VISUALSTYLE
  5
38
102
{ACAD_REACTORS
330
2A
102
}
330
2A
100
AcDbVisualStyle
  2
Linepattern
 70
    14
177
     2
291
     1
 71
     2
176
     1
 72
     2
176
     1
 73
     0
176
     1
 90
        0
176
     1
 40
-0.6
176
     1
 41
-30.0
176
     1
 62
     5
 63
     7
421
 16777215
176
     1
 74
     1
176
     1
 91
        4
176
     1
 64
     7
176
     1
 65
   257
176
     1
 75
     7
176
     1
175
     7
176
     1
 42
1.0
176
     1
 92
        8
176
     1
 66
     7
176
     1
 43
1.0
176
     1
 76
     1
176
     1
 77
     6
176
     1
 78
     2
176
     1
 67
     7
176
     1
 79
     5
176
     1
170
     0
176
     1
171
     0
176
     1
290
     0
176
     1
 93
        1
176
     1
 44
0.0
176
     1
173
     0
176
     1
  0
VISUALSTYLE
  5
33
102
{ACAD_REACTORS
330
2A
102
}
330
2A
100
AcDbVisualStyle
  2
Realistic
 70
     8
177
     2
291
     0
 71
     2
176
     1
 72
     2
176
     1
 73
     0
176
     1
 90
        0
176
     1
 40
-0.6
176
     1
 41
-30.0
176
     1
 62
     5
 63
     7
421
 16777215
176
     1
 74
     1
176
     1
 91
        0
176
     1
 64
     7
176
     1
 65
   257
176
     1
 75
     1
176
     1
175
     1
176
     1
 42
1.0
176
     1
 92
        8
176
     1
 66
     8
424
  7895160
176
     1
 43
1.0
176
     1
 76
     1
176
     1
 77
     6
176
     1
 78
     2
176
     1
 67
     7
176
     1
 79
     5
176
     1
170
     0
176
     1
171
     0
176
     1
290
     0
176
     1
 93
       13
176
     1
 44
0.0
176
     1
173
     0
176
     1
  0
VISUALSTYLE
  5
37
102
{ACAD_REACTORS
330
2A
102
}
330
2A
100
AcDbVisualStyle
  2
Thicken
 70
    13
177
     2
291
     1
 71
     2
176
     1
 72
     2
176
     1
 73
     0
176
     1
 90
        0
176
     1
 40
-0.6
176
     1
 41
-30.0
176
     1
 62
     5
 63
     7
421
 16777215
176
     1
 74
     1
176
     1
 91
        4
176
     1
 64
     7
176
     1
 65
   257
176
     1
 75
     1
176
     1
175
     1
176
     1
 42
1.0
176
     1
 92
       12
176
     1
 66
     7
176
     1
 43
1.0
176
     1
 76
     1
176
     1
 77
     6
176
     1
 78
     2
176
     1
 67
     7
176
     1
 79
     5
176
     1
170
     0
176
     1
171
     0
176
     1
290
     0
176
     1
 93
        1
176
     1
 44
0.0
176
     1
173
     0
176
     1
  0
ENDSEC
  0
EOF
