ISO-10303-21;
HEADER;
/* Generated by software containing ST-Developer
 * from STEP Tools, Inc. (www.steptools.com) 
 */

FILE_DESCRIPTION(
/* description */ (''),
/* implementation_level */ '2;1');

FILE_NAME(
/* name */ 'C:/Users/vracm/Downloads/frezovane_sklicko_celek v2.step',
/* time_stamp */ '2022-02-21T16:19:46+01:00',
/* author */ (''),
/* organization */ (''),
/* preprocessor_version */ 'ST-DEVELOPER v18.1',
/* originating_system */ 'Autodesk Translation Framework v10.13.0.1454',

/* authorisation */ '');

FILE_SCHEMA (('AUTOMOTIVE_DESIGN { 1 0 10303 214 3 1 1 }'));
ENDSEC;

DATA;
#10=MECHANICAL_DESIGN_GEOMETRIC_PRESENTATION_REPRESENTATION('',(#25),#515);
#11=ITEM_DEFINED_TRANSFORMATION($,$,#319,#340);
#12=ITEM_DEFINED_TRANSFORMATION($,$,#338,#341);
#13=ITEM_DEFINED_TRANSFORMATION($,$,#339,#342);
#14=(
REPRESENTATION_RELATIONSHIP($,$,#532,#531)
REPRESENTATION_RELATIONSHIP_WITH_TRANSFORMATION(#11)
SHAPE_REPRESENTATION_RELATIONSHIP()
);
#15=(
REPRESENTATION_RELATIONSHIP($,$,#533,#531)
REPRESENTATION_RELATIONSHIP_WITH_TRANSFORMATION(#12)
SHAPE_REPRESENTATION_RELATIONSHIP()
);
#16=(
REPRESENTATION_RELATIONSHIP($,$,#534,#531)
REPRESENTATION_RELATIONSHIP_WITH_TRANSFORMATION(#13)
SHAPE_REPRESENTATION_RELATIONSHIP()
);
#17=CONTEXT_DEPENDENT_SHAPE_REPRESENTATION(#14,#528);
#18=CONTEXT_DEPENDENT_SHAPE_REPRESENTATION(#15,#529);
#19=CONTEXT_DEPENDENT_SHAPE_REPRESENTATION(#16,#530);
#20=NEXT_ASSEMBLY_USAGE_OCCURRENCE('Untitled v1:1','Untitled v1:1',
'Untitled v1:1',#536,#537,'Untitled v1:1');
#21=NEXT_ASSEMBLY_USAGE_OCCURRENCE('V\X\EDko:1','V\X\EDko:1','V\X\EDko
:1',#536,#538,'V\X\EDko:1');
#22=NEXT_ASSEMBLY_USAGE_OCCURRENCE('Vlozka:1','Vlozka:1','Vlozka:1',#536,
#539,'Vlozka:1');
#23=SHAPE_REPRESENTATION_RELATIONSHIP('SRR','None',#532,#24);
#24=ADVANCED_BREP_SHAPE_REPRESENTATION('',(#26),#512);
#25=STYLED_ITEM('',(#556),#26);
#26=MANIFOLD_SOLID_BREP('Body1',#283);
#27=CYLINDRICAL_SURFACE('',#323,5.);
#28=CYLINDRICAL_SURFACE('',#329,7.);
#29=FACE_OUTER_BOUND('',#43,.T.);
#30=FACE_OUTER_BOUND('',#44,.T.);
#31=FACE_OUTER_BOUND('',#45,.T.);
#32=FACE_OUTER_BOUND('',#46,.T.);
#33=FACE_OUTER_BOUND('',#47,.T.);
#34=FACE_OUTER_BOUND('',#48,.T.);
#35=FACE_OUTER_BOUND('',#49,.T.);
#36=FACE_OUTER_BOUND('',#50,.T.);
#37=FACE_OUTER_BOUND('',#51,.T.);
#38=FACE_OUTER_BOUND('',#52,.T.);
#39=FACE_OUTER_BOUND('',#53,.T.);
#40=FACE_OUTER_BOUND('',#54,.T.);
#41=FACE_OUTER_BOUND('',#55,.T.);
#42=FACE_OUTER_BOUND('',#56,.T.);
#43=EDGE_LOOP('',(#185,#186,#187,#188));
#44=EDGE_LOOP('',(#189,#190,#191,#192));
#45=EDGE_LOOP('',(#193,#194,#195,#196));
#46=EDGE_LOOP('',(#197,#198,#199,#200));
#47=EDGE_LOOP('',(#201,#202,#203,#204,#205,#206,#207,#208));
#48=EDGE_LOOP('',(#209,#210,#211,#212));
#49=EDGE_LOOP('',(#213,#214,#215,#216));
#50=EDGE_LOOP('',(#217,#218,#219,#220));
#51=EDGE_LOOP('',(#221,#222,#223,#224,#225,#226,#227,#228));
#52=EDGE_LOOP('',(#229,#230,#231,#232));
#53=EDGE_LOOP('',(#233,#234,#235,#236));
#54=EDGE_LOOP('',(#237,#238,#239,#240,#241,#242,#243,#244,#245,#246,#247,
#248));
#55=EDGE_LOOP('',(#249,#250,#251,#252));
#56=EDGE_LOOP('',(#253,#254,#255,#256));
#57=CIRCLE('',#321,5.);
#58=CIRCLE('',#324,5.);
#59=CIRCLE('',#327,7.);
#60=CIRCLE('',#330,7.);
#61=LINE('',#430,#93);
#62=LINE('',#434,#94);
#63=LINE('',#435,#95);
#64=LINE('',#439,#96);
#65=LINE('',#440,#97);
#66=LINE('',#441,#98);
#67=LINE('',#445,#99);
#68=LINE('',#448,#100);
#69=LINE('',#449,#101);
#70=LINE('',#452,#102);
#71=LINE('',#454,#103);
#72=LINE('',#458,#104);
#73=LINE('',#459,#105);
#74=LINE('',#462,#106);
#75=LINE('',#464,#107);
#76=LINE('',#465,#108);
#77=LINE('',#469,#109);
#78=LINE('',#472,#110);
#79=LINE('',#473,#111);
#80=LINE('',#476,#112);
#81=LINE('',#478,#113);
#82=LINE('',#480,#114);
#83=LINE('',#482,#115);
#84=LINE('',#483,#116);
#85=LINE('',#486,#117);
#86=LINE('',#488,#118);
#87=LINE('',#489,#119);
#88=LINE('',#492,#120);
#89=LINE('',#493,#121);
#90=LINE('',#496,#122);
#91=LINE('',#497,#123);
#92=LINE('',#499,#124);
#93=VECTOR('',#349,10.);
#94=VECTOR('',#352,10.);
#95=VECTOR('',#353,10.);
#96=VECTOR('',#356,10.);
#97=VECTOR('',#357,10.);
#98=VECTOR('',#358,10.);
#99=VECTOR('',#363,10.);
#100=VECTOR('',#366,10.);
#101=VECTOR('',#367,10.);
#102=VECTOR('',#370,10.);
#103=VECTOR('',#371,10.);
#104=VECTOR('',#374,10.);
#105=VECTOR('',#375,10.);
#106=VECTOR('',#378,10.);
#107=VECTOR('',#379,10.);
#108=VECTOR('',#380,10.);
#109=VECTOR('',#385,10.);
#110=VECTOR('',#388,10.);
#111=VECTOR('',#389,10.);
#112=VECTOR('',#392,10.);
#113=VECTOR('',#393,10.);
#114=VECTOR('',#394,10.);
#115=VECTOR('',#395,10.);
#116=VECTOR('',#396,10.);
#117=VECTOR('',#399,10.);
#118=VECTOR('',#400,10.);
#119=VECTOR('',#401,10.);
#120=VECTOR('',#404,10.);
#121=VECTOR('',#405,10.);
#122=VECTOR('',#408,10.);
#123=VECTOR('',#409,10.);
#124=VECTOR('',#412,10.);
#125=VERTEX_POINT('',#428);
#126=VERTEX_POINT('',#429);
#127=VERTEX_POINT('',#431);
#128=VERTEX_POINT('',#433);
#129=VERTEX_POINT('',#437);
#130=VERTEX_POINT('',#438);
#131=VERTEX_POINT('',#443);
#132=VERTEX_POINT('',#447);
#133=VERTEX_POINT('',#451);
#134=VERTEX_POINT('',#453);
#135=VERTEX_POINT('',#455);
#136=VERTEX_POINT('',#457);
#137=VERTEX_POINT('',#461);
#138=VERTEX_POINT('',#463);
#139=VERTEX_POINT('',#467);
#140=VERTEX_POINT('',#471);
#141=VERTEX_POINT('',#475);
#142=VERTEX_POINT('',#477);
#143=VERTEX_POINT('',#479);
#144=VERTEX_POINT('',#481);
#145=VERTEX_POINT('',#485);
#146=VERTEX_POINT('',#487);
#147=VERTEX_POINT('',#491);
#148=VERTEX_POINT('',#495);
#149=EDGE_CURVE('',#125,#126,#61,.T.);
#150=EDGE_CURVE('',#126,#127,#57,.T.);
#151=EDGE_CURVE('',#127,#128,#62,.T.);
#152=EDGE_CURVE('',#128,#125,#63,.T.);
#153=EDGE_CURVE('',#129,#130,#64,.T.);
#154=EDGE_CURVE('',#126,#129,#65,.T.);
#155=EDGE_CURVE('',#130,#125,#66,.T.);
#156=EDGE_CURVE('',#131,#129,#58,.T.);
#157=EDGE_CURVE('',#127,#131,#67,.T.);
#158=EDGE_CURVE('',#132,#131,#68,.T.);
#159=EDGE_CURVE('',#128,#132,#69,.T.);
#160=EDGE_CURVE('',#133,#130,#70,.T.);
#161=EDGE_CURVE('',#133,#134,#71,.T.);
#162=EDGE_CURVE('',#134,#135,#59,.T.);
#163=EDGE_CURVE('',#135,#136,#72,.T.);
#164=EDGE_CURVE('',#132,#136,#73,.T.);
#165=EDGE_CURVE('',#137,#133,#74,.T.);
#166=EDGE_CURVE('',#138,#137,#75,.T.);
#167=EDGE_CURVE('',#138,#134,#76,.T.);
#168=EDGE_CURVE('',#139,#138,#60,.T.);
#169=EDGE_CURVE('',#139,#135,#77,.T.);
#170=EDGE_CURVE('',#140,#139,#78,.T.);
#171=EDGE_CURVE('',#136,#140,#79,.T.);
#172=EDGE_CURVE('',#137,#141,#80,.T.);
#173=EDGE_CURVE('',#141,#142,#81,.T.);
#174=EDGE_CURVE('',#142,#143,#82,.T.);
#175=EDGE_CURVE('',#143,#144,#83,.T.);
#176=EDGE_CURVE('',#144,#140,#84,.T.);
#177=EDGE_CURVE('',#142,#145,#85,.T.);
#178=EDGE_CURVE('',#146,#145,#86,.T.);
#179=EDGE_CURVE('',#146,#143,#87,.T.);
#180=EDGE_CURVE('',#147,#146,#88,.T.);
#181=EDGE_CURVE('',#147,#144,#89,.T.);
#182=EDGE_CURVE('',#148,#147,#90,.T.);
#183=EDGE_CURVE('',#148,#141,#91,.T.);
#184=EDGE_CURVE('',#145,#148,#92,.T.);
#185=ORIENTED_EDGE('',*,*,#149,.T.);
#186=ORIENTED_EDGE('',*,*,#150,.T.);
#187=ORIENTED_EDGE('',*,*,#151,.T.);
#188=ORIENTED_EDGE('',*,*,#152,.T.);
#189=ORIENTED_EDGE('',*,*,#153,.F.);
#190=ORIENTED_EDGE('',*,*,#154,.F.);
#191=ORIENTED_EDGE('',*,*,#149,.F.);
#192=ORIENTED_EDGE('',*,*,#155,.F.);
#193=ORIENTED_EDGE('',*,*,#156,.F.);
#194=ORIENTED_EDGE('',*,*,#157,.F.);
#195=ORIENTED_EDGE('',*,*,#150,.F.);
#196=ORIENTED_EDGE('',*,*,#154,.T.);
#197=ORIENTED_EDGE('',*,*,#158,.F.);
#198=ORIENTED_EDGE('',*,*,#159,.F.);
#199=ORIENTED_EDGE('',*,*,#151,.F.);
#200=ORIENTED_EDGE('',*,*,#157,.T.);
#201=ORIENTED_EDGE('',*,*,#158,.T.);
#202=ORIENTED_EDGE('',*,*,#156,.T.);
#203=ORIENTED_EDGE('',*,*,#153,.T.);
#204=ORIENTED_EDGE('',*,*,#160,.F.);
#205=ORIENTED_EDGE('',*,*,#161,.T.);
#206=ORIENTED_EDGE('',*,*,#162,.T.);
#207=ORIENTED_EDGE('',*,*,#163,.T.);
#208=ORIENTED_EDGE('',*,*,#164,.F.);
#209=ORIENTED_EDGE('',*,*,#161,.F.);
#210=ORIENTED_EDGE('',*,*,#165,.F.);
#211=ORIENTED_EDGE('',*,*,#166,.F.);
#212=ORIENTED_EDGE('',*,*,#167,.T.);
#213=ORIENTED_EDGE('',*,*,#162,.F.);
#214=ORIENTED_EDGE('',*,*,#167,.F.);
#215=ORIENTED_EDGE('',*,*,#168,.F.);
#216=ORIENTED_EDGE('',*,*,#169,.T.);
#217=ORIENTED_EDGE('',*,*,#163,.F.);
#218=ORIENTED_EDGE('',*,*,#169,.F.);
#219=ORIENTED_EDGE('',*,*,#170,.F.);
#220=ORIENTED_EDGE('',*,*,#171,.F.);
#221=ORIENTED_EDGE('',*,*,#166,.T.);
#222=ORIENTED_EDGE('',*,*,#172,.T.);
#223=ORIENTED_EDGE('',*,*,#173,.T.);
#224=ORIENTED_EDGE('',*,*,#174,.T.);
#225=ORIENTED_EDGE('',*,*,#175,.T.);
#226=ORIENTED_EDGE('',*,*,#176,.T.);
#227=ORIENTED_EDGE('',*,*,#170,.T.);
#228=ORIENTED_EDGE('',*,*,#168,.T.);
#229=ORIENTED_EDGE('',*,*,#177,.T.);
#230=ORIENTED_EDGE('',*,*,#178,.F.);
#231=ORIENTED_EDGE('',*,*,#179,.T.);
#232=ORIENTED_EDGE('',*,*,#174,.F.);
#233=ORIENTED_EDGE('',*,*,#179,.F.);
#234=ORIENTED_EDGE('',*,*,#180,.F.);
#235=ORIENTED_EDGE('',*,*,#181,.T.);
#236=ORIENTED_EDGE('',*,*,#175,.F.);
#237=ORIENTED_EDGE('',*,*,#160,.T.);
#238=ORIENTED_EDGE('',*,*,#155,.T.);
#239=ORIENTED_EDGE('',*,*,#152,.F.);
#240=ORIENTED_EDGE('',*,*,#159,.T.);
#241=ORIENTED_EDGE('',*,*,#164,.T.);
#242=ORIENTED_EDGE('',*,*,#171,.T.);
#243=ORIENTED_EDGE('',*,*,#176,.F.);
#244=ORIENTED_EDGE('',*,*,#181,.F.);
#245=ORIENTED_EDGE('',*,*,#182,.F.);
#246=ORIENTED_EDGE('',*,*,#183,.T.);
#247=ORIENTED_EDGE('',*,*,#172,.F.);
#248=ORIENTED_EDGE('',*,*,#165,.T.);
#249=ORIENTED_EDGE('',*,*,#183,.F.);
#250=ORIENTED_EDGE('',*,*,#184,.F.);
#251=ORIENTED_EDGE('',*,*,#177,.F.);
#252=ORIENTED_EDGE('',*,*,#173,.F.);
#253=ORIENTED_EDGE('',*,*,#184,.T.);
#254=ORIENTED_EDGE('',*,*,#182,.T.);
#255=ORIENTED_EDGE('',*,*,#180,.T.);
#256=ORIENTED_EDGE('',*,*,#178,.T.);
#257=PLANE('',#320);
#258=PLANE('',#322);
#259=PLANE('',#325);
#260=PLANE('',#326);
#261=PLANE('',#328);
#262=PLANE('',#331);
#263=PLANE('',#332);
#264=PLANE('',#333);
#265=PLANE('',#334);
#266=PLANE('',#335);
#267=PLANE('',#336);
#268=PLANE('',#337);
#269=ADVANCED_FACE('',(#29),#257,.T.);
#270=ADVANCED_FACE('',(#30),#258,.F.);
#271=ADVANCED_FACE('',(#31),#27,.T.);
#272=ADVANCED_FACE('',(#32),#259,.F.);
#273=ADVANCED_FACE('',(#33),#260,.F.);
#274=ADVANCED_FACE('',(#34),#261,.F.);
#275=ADVANCED_FACE('',(#35),#28,.F.);
#276=ADVANCED_FACE('',(#36),#262,.F.);
#277=ADVANCED_FACE('',(#37),#263,.T.);
#278=ADVANCED_FACE('',(#38),#264,.T.);
#279=ADVANCED_FACE('',(#39),#265,.T.);
#280=ADVANCED_FACE('',(#40),#266,.T.);
#281=ADVANCED_FACE('',(#41),#267,.T.);
#282=ADVANCED_FACE('',(#42),#268,.T.);
#283=CLOSED_SHELL('',(#269,#270,#271,#272,#273,#274,#275,#276,#277,#278,
#279,#280,#281,#282));
#284=DERIVED_UNIT_ELEMENT(#290,1.);
#285=DERIVED_UNIT_ELEMENT(#517,-3.);
#286=DERIVED_UNIT_ELEMENT(#290,1.);
#287=DERIVED_UNIT_ELEMENT(#517,-3.);
#288=DERIVED_UNIT_ELEMENT(#290,1.);
#289=DERIVED_UNIT_ELEMENT(#517,-3.);
#290=(
MASS_UNIT()
NAMED_UNIT(*)
SI_UNIT(.KILO.,.GRAM.)
);
#291=DERIVED_UNIT((#284,#285));
#292=DERIVED_UNIT((#286,#287));
#293=DERIVED_UNIT((#288,#289));
#294=MEASURE_REPRESENTATION_ITEM('density measure',
POSITIVE_RATIO_MEASURE(1000.),#291);
#295=MEASURE_REPRESENTATION_ITEM('density measure',
POSITIVE_RATIO_MEASURE(2700.),#292);
#296=MEASURE_REPRESENTATION_ITEM('density measure',
POSITIVE_RATIO_MEASURE(1000.),#293);
#297=PROPERTY_DEFINITION_REPRESENTATION(#312,#303);
#298=PROPERTY_DEFINITION_REPRESENTATION(#313,#304);
#299=PROPERTY_DEFINITION_REPRESENTATION(#314,#305);
#300=PROPERTY_DEFINITION_REPRESENTATION(#315,#306);
#301=PROPERTY_DEFINITION_REPRESENTATION(#316,#307);
#302=PROPERTY_DEFINITION_REPRESENTATION(#317,#308);
#303=REPRESENTATION('material name',(#309),#512);
#304=REPRESENTATION('density',(#294),#512);
#305=REPRESENTATION('material name',(#310),#513);
#306=REPRESENTATION('density',(#295),#513);
#307=REPRESENTATION('material name',(#311),#514);
#308=REPRESENTATION('density',(#296),#514);
#309=DESCRIPTIVE_REPRESENTATION_ITEM('V\X2\0161\X0\eobecn\X\E9',
'V\X2\0161\X0\eobecn\X\E9');
#310=DESCRIPTIVE_REPRESENTATION_ITEM('Hlin\X\EDk 6061','Hlin\X\EDk 606
1');
#311=DESCRIPTIVE_REPRESENTATION_ITEM('V\X2\0161\X0\eobecn\X\E9',
'V\X2\0161\X0\eobecn\X\E9');
#312=PROPERTY_DEFINITION('material property','material name',#537);
#313=PROPERTY_DEFINITION('material property','density of part',#537);
#314=PROPERTY_DEFINITION('material property','material name',#538);
#315=PROPERTY_DEFINITION('material property','density of part',#538);
#316=PROPERTY_DEFINITION('material property','material name',#539);
#317=PROPERTY_DEFINITION('material property','density of part',#539);
#318=AXIS2_PLACEMENT_3D('placement',#425,#343,#344);
#319=AXIS2_PLACEMENT_3D('placement',#426,#345,#346);
#320=AXIS2_PLACEMENT_3D('',#427,#347,#348);
#321=AXIS2_PLACEMENT_3D('',#432,#350,#351);
#322=AXIS2_PLACEMENT_3D('',#436,#354,#355);
#323=AXIS2_PLACEMENT_3D('',#442,#359,#360);
#324=AXIS2_PLACEMENT_3D('',#444,#361,#362);
#325=AXIS2_PLACEMENT_3D('',#446,#364,#365);
#326=AXIS2_PLACEMENT_3D('',#450,#368,#369);
#327=AXIS2_PLACEMENT_3D('',#456,#372,#373);
#328=AXIS2_PLACEMENT_3D('',#460,#376,#377);
#329=AXIS2_PLACEMENT_3D('',#466,#381,#382);
#330=AXIS2_PLACEMENT_3D('',#468,#383,#384);
#331=AXIS2_PLACEMENT_3D('',#470,#386,#387);
#332=AXIS2_PLACEMENT_3D('',#474,#390,#391);
#333=AXIS2_PLACEMENT_3D('',#484,#397,#398);
#334=AXIS2_PLACEMENT_3D('',#490,#402,#403);
#335=AXIS2_PLACEMENT_3D('',#494,#406,#407);
#336=AXIS2_PLACEMENT_3D('',#498,#410,#411);
#337=AXIS2_PLACEMENT_3D('',#500,#413,#414);
#338=AXIS2_PLACEMENT_3D('placement',#501,#415,#416);
#339=AXIS2_PLACEMENT_3D('placement',#502,#417,#418);
#340=AXIS2_PLACEMENT_3D('',#503,#419,#420);
#341=AXIS2_PLACEMENT_3D('',#504,#421,#422);
#342=AXIS2_PLACEMENT_3D('',#505,#423,#424);
#343=DIRECTION('axis',(0.,0.,1.));
#344=DIRECTION('refdir',(1.,0.,0.));
#345=DIRECTION('axis',(0.,0.,1.));
#346=DIRECTION('refdir',(1.,0.,0.));
#347=DIRECTION('center_axis',(1.22464679914735E-16,0.,1.));
#348=DIRECTION('ref_axis',(1.,1.31476817536835E-32,-1.22464679914735E-16));
#349=DIRECTION('',(1.25347760844776E-16,-1.,-1.53506734098843E-32));
#350=DIRECTION('center_axis',(1.22464679914735E-16,0.,1.));
#351=DIRECTION('ref_axis',(1.,1.31476817536835E-32,-1.22464679914735E-16));
#352=DIRECTION('',(-1.43254583822601E-16,1.,1.75436267541535E-32));
#353=DIRECTION('',(-1.,-1.31476817536835E-32,1.22464679914735E-16));
#354=DIRECTION('center_axis',(1.,1.25347760844776E-16,-1.22464679914735E-16));
#355=DIRECTION('ref_axis',(1.25347760844776E-16,-1.,-1.53506734098843E-32));
#356=DIRECTION('',(-1.25347760844776E-16,1.,1.53506734098843E-32));
#357=DIRECTION('',(-1.22464679914735E-16,0.,-1.));
#358=DIRECTION('',(1.22464679914735E-16,0.,1.));
#359=DIRECTION('center_axis',(-1.22464679914735E-16,0.,-1.));
#360=DIRECTION('ref_axis',(1.,1.31476817536835E-32,-1.22464679914735E-16));
#361=DIRECTION('center_axis',(-1.22464679914735E-16,0.,-1.));
#362=DIRECTION('ref_axis',(1.,1.31476817536835E-32,-1.22464679914735E-16));
#363=DIRECTION('',(-1.22464679914735E-16,0.,-1.));
#364=DIRECTION('center_axis',(-1.,-1.43254583822601E-16,1.22464679914735E-16));
#365=DIRECTION('ref_axis',(-1.43254583822601E-16,1.,1.75436267541535E-32));
#366=DIRECTION('',(1.43254583822601E-16,-1.,-1.75436267541535E-32));
#367=DIRECTION('',(-1.22464679914735E-16,0.,-1.));
#368=DIRECTION('center_axis',(-1.22464679914735E-16,0.,-1.));
#369=DIRECTION('ref_axis',(-1.,0.,1.22464679914735E-16));
#370=DIRECTION('',(1.,0.,-1.22464679914735E-16));
#371=DIRECTION('',(1.43254583822601E-16,-1.,-1.75436267541535E-32));
#372=DIRECTION('center_axis',(1.22464679914735E-16,0.,1.));
#373=DIRECTION('ref_axis',(-1.,-1.31476817536835E-32,1.22464679914735E-16));
#374=DIRECTION('',(-7.16272919113004E-17,1.,8.77181337707672E-33));
#375=DIRECTION('',(1.,0.,-1.22464679914735E-16));
#376=DIRECTION('center_axis',(-1.,-1.43254583822601E-16,1.22464679914735E-16));
#377=DIRECTION('ref_axis',(-1.43254583822601E-16,1.,1.75436267541535E-32));
#378=DIRECTION('',(-1.22464679914735E-16,0.,-1.));
#379=DIRECTION('',(-1.43254583822601E-16,1.,1.75436267541535E-32));
#380=DIRECTION('',(-1.22464679914735E-16,0.,-1.));
#381=DIRECTION('center_axis',(-1.22464679914735E-16,0.,-1.));
#382=DIRECTION('ref_axis',(-1.,-1.31476817536835E-32,1.22464679914735E-16));
#383=DIRECTION('center_axis',(-1.22464679914735E-16,0.,-1.));
#384=DIRECTION('ref_axis',(-1.,-1.31476817536835E-32,1.22464679914735E-16));
#385=DIRECTION('',(-1.22464679914735E-16,0.,-1.));
#386=DIRECTION('center_axis',(1.,7.16272919113004E-17,-1.22464679914735E-16));
#387=DIRECTION('ref_axis',(7.16272919113004E-17,-1.,-8.77181337707672E-33));
#388=DIRECTION('',(7.16272919113004E-17,-1.,-8.77181337707672E-33));
#389=DIRECTION('',(1.22464679914735E-16,0.,1.));
#390=DIRECTION('center_axis',(1.22464679914735E-16,0.,1.));
#391=DIRECTION('ref_axis',(1.,1.31476817536835E-32,-1.22464679914735E-16));
#392=DIRECTION('',(-1.,-1.31476817536835E-32,1.22464679914735E-16));
#393=DIRECTION('',(-2.73691106313441E-48,-1.,3.35174937301853E-64));
#394=DIRECTION('',(1.,1.31476817536835E-32,-1.22464679914735E-16));
#395=DIRECTION('',(-1.31476817536835E-32,1.,1.61012663758566E-48));
#396=DIRECTION('',(-1.,-1.31476817536835E-32,1.22464679914735E-16));
#397=DIRECTION('center_axis',(0.,-1.,0.));
#398=DIRECTION('ref_axis',(-1.,0.,1.22464679914735E-16));
#399=DIRECTION('',(-1.22464679914735E-16,0.,-1.));
#400=DIRECTION('',(-1.,0.,1.22464679914735E-16));
#401=DIRECTION('',(1.22464679914735E-16,0.,1.));
#402=DIRECTION('center_axis',(1.,0.,-1.22464679914735E-16));
#403=DIRECTION('ref_axis',(0.,-1.,0.));
#404=DIRECTION('',(0.,-1.,0.));
#405=DIRECTION('',(1.22464679914735E-16,0.,1.));
#406=DIRECTION('center_axis',(0.,1.,0.));
#407=DIRECTION('ref_axis',(1.,0.,-1.22464679914735E-16));
#408=DIRECTION('',(1.,0.,-1.22464679914735E-16));
#409=DIRECTION('',(1.22464679914735E-16,0.,1.));
#410=DIRECTION('center_axis',(-1.,0.,1.22464679914735E-16));
#411=DIRECTION('ref_axis',(0.,1.,0.));
#412=DIRECTION('',(0.,1.,0.));
#413=DIRECTION('center_axis',(-1.22464679914735E-16,0.,-1.));
#414=DIRECTION('ref_axis',(-1.,0.,1.22464679914735E-16));
#415=DIRECTION('axis',(0.,0.,1.));
#416=DIRECTION('refdir',(1.,0.,0.));
#417=DIRECTION('axis',(0.,0.,1.));
#418=DIRECTION('refdir',(1.,0.,0.));
#419=DIRECTION('',(0.,0.,1.));
#420=DIRECTION('',(1.,0.,0.));
#421=DIRECTION('',(1.,0.,0.));
#422=DIRECTION('',(0.,-1.,0.));
#423=DIRECTION('',(1.,-1.31476817536835E-32,0.));
#424=DIRECTION('',(0.,0.,-1.));
#425=CARTESIAN_POINT('',(0.,0.,0.));
#426=CARTESIAN_POINT('',(0.,0.,0.));
#427=CARTESIAN_POINT('Origin',(79.667469851044,-57.7347962195863,-3.44975959172367));
#428=CARTESIAN_POINT('',(74.667469851044,-20.2347962195863,-3.44975959172367));
#429=CARTESIAN_POINT('',(74.6674698510441,-82.2347962195863,-3.44975959172367));
#430=CARTESIAN_POINT('',(74.667469851044,-38.9847962195863,-3.44975959172367));
#431=CARTESIAN_POINT('',(84.667469851044,-82.2347962195863,-3.44975959172367));
#432=CARTESIAN_POINT('Origin',(79.667469851044,-82.2347962195863,-3.44975959172367));
#433=CARTESIAN_POINT('',(84.667469851044,-20.2347962195863,-3.44975959172367));
#434=CARTESIAN_POINT('',(84.667469851044,-69.9847962195863,-3.44975959172367));
#435=CARTESIAN_POINT('',(92.167469851044,-20.2347962195863,-3.44975959172367));
#436=CARTESIAN_POINT('Origin',(74.667469851044,-20.2347962195863,-3.44975959172367));
#437=CARTESIAN_POINT('',(74.6674698510441,-82.2347962195863,-5.44975959172367));
#438=CARTESIAN_POINT('',(74.667469851044,-20.2347962195863,-5.44975959172367));
#439=CARTESIAN_POINT('',(74.667469851044,-38.9847962195863,-5.44975959172367));
#440=CARTESIAN_POINT('',(74.6674698510441,-82.2347962195863,-3.44975959172367));
#441=CARTESIAN_POINT('',(74.667469851044,-20.2347962195863,-4.44975959172366));
#442=CARTESIAN_POINT('Origin',(79.667469851044,-82.2347962195863,-3.44975959172367));
#443=CARTESIAN_POINT('',(84.667469851044,-82.2347962195863,-5.44975959172367));
#444=CARTESIAN_POINT('Origin',(79.667469851044,-82.2347962195863,-5.44975959172367));
#445=CARTESIAN_POINT('',(84.667469851044,-82.2347962195863,-3.44975959172367));
#446=CARTESIAN_POINT('Origin',(84.667469851044,-82.2347962195863,-3.44975959172367));
#447=CARTESIAN_POINT('',(84.667469851044,-20.2347962195863,-5.44975959172367));
#448=CARTESIAN_POINT('',(84.667469851044,-69.9847962195863,-5.44975959172367));
#449=CARTESIAN_POINT('',(84.667469851044,-20.2347962195863,-4.44975959172367));
#450=CARTESIAN_POINT('Origin',(79.667469851044,-57.7347962195863,-5.44975959172367));
#451=CARTESIAN_POINT('',(72.667469851044,-20.2347962195863,-5.44975959172366));
#452=CARTESIAN_POINT('',(67.167469851044,-20.2347962195863,-5.44975959172366));
#453=CARTESIAN_POINT('',(72.6674698510441,-82.2347962195863,-5.44975959172366));
#454=CARTESIAN_POINT('',(72.667469851044,-69.9847962195863,-5.44975959172366));
#455=CARTESIAN_POINT('',(86.667469851044,-82.2347962195863,-5.44975959172367));
#456=CARTESIAN_POINT('Origin',(79.667469851044,-82.2347962195863,-5.44975959172367));
#457=CARTESIAN_POINT('',(86.667469851044,-20.2347962195863,-5.44975959172367));
#458=CARTESIAN_POINT('',(86.667469851044,-38.9847962195863,-5.44975959172367));
#459=CARTESIAN_POINT('',(67.167469851044,-20.2347962195863,-5.44975959172366));
#460=CARTESIAN_POINT('Origin',(72.6674698510441,-82.2347962195863,-3.44975959172367));
#461=CARTESIAN_POINT('',(72.667469851044,-20.2347962195863,-3.44975959172367));
#462=CARTESIAN_POINT('',(72.667469851044,-20.2347962195863,-4.44975959172366));
#463=CARTESIAN_POINT('',(72.6674698510441,-82.2347962195863,-3.44975959172367));
#464=CARTESIAN_POINT('',(72.6674698510441,-69.9847962195863,-3.44975959172367));
#465=CARTESIAN_POINT('',(72.6674698510441,-82.2347962195863,-3.44975959172367));
#466=CARTESIAN_POINT('Origin',(79.667469851044,-82.2347962195863,-3.44975959172367));
#467=CARTESIAN_POINT('',(86.667469851044,-82.2347962195863,-3.44975959172367));
#468=CARTESIAN_POINT('Origin',(79.667469851044,-82.2347962195863,-3.44975959172367));
#469=CARTESIAN_POINT('',(86.667469851044,-82.2347962195863,-3.44975959172367));
#470=CARTESIAN_POINT('Origin',(86.667469851044,-20.2347962195863,-3.44975959172367));
#471=CARTESIAN_POINT('',(86.667469851044,-20.2347962195863,-3.44975959172367));
#472=CARTESIAN_POINT('',(86.667469851044,-38.9847962195863,-3.44975959172367));
#473=CARTESIAN_POINT('',(86.667469851044,-20.2347962195863,-4.44975959172367));
#474=CARTESIAN_POINT('Origin',(79.667469851044,-57.7347962195863,-3.44975959172367));
#475=CARTESIAN_POINT('',(67.167469851044,-20.2347962195863,-3.44975959172366));
#476=CARTESIAN_POINT('',(92.167469851044,-20.2347962195863,-3.44975959172367));
#477=CARTESIAN_POINT('',(67.167469851044,-95.2347962195863,-3.44975959172366));
#478=CARTESIAN_POINT('',(67.167469851044,-20.2347962195863,-3.44975959172366));
#479=CARTESIAN_POINT('',(92.167469851044,-95.2347962195863,-3.44975959172367));
#480=CARTESIAN_POINT('',(67.167469851044,-95.2347962195863,-3.44975959172366));
#481=CARTESIAN_POINT('',(92.167469851044,-20.2347962195863,-3.44975959172367));
#482=CARTESIAN_POINT('',(92.167469851044,-95.2347962195863,-3.44975959172367));
#483=CARTESIAN_POINT('',(92.167469851044,-20.2347962195863,-3.44975959172367));
#484=CARTESIAN_POINT('Origin',(92.167469851044,-95.2347962195863,-5.44975959172367));
#485=CARTESIAN_POINT('',(67.167469851044,-95.2347962195863,-6.44975959172367));
#486=CARTESIAN_POINT('',(67.167469851044,-95.2347962195863,-5.44975959172366));
#487=CARTESIAN_POINT('',(92.167469851044,-95.2347962195863,-6.44975959172367));
#488=CARTESIAN_POINT('',(92.167469851044,-95.2347962195863,-6.44975959172367));
#489=CARTESIAN_POINT('',(92.167469851044,-95.2347962195863,-5.44975959172367));
#490=CARTESIAN_POINT('Origin',(92.167469851044,-20.2347962195863,-5.44975959172367));
#491=CARTESIAN_POINT('',(92.167469851044,-20.2347962195863,-6.44975959172367));
#492=CARTESIAN_POINT('',(92.167469851044,-19.2347962195863,-6.44975959172367));
#493=CARTESIAN_POINT('',(92.167469851044,-20.2347962195863,-5.44975959172367));
#494=CARTESIAN_POINT('Origin',(67.167469851044,-20.2347962195863,-5.44975959172366));
#495=CARTESIAN_POINT('',(67.167469851044,-20.2347962195863,-6.44975959172367));
#496=CARTESIAN_POINT('',(67.167469851044,-20.2347962195863,-6.44975959172367));
#497=CARTESIAN_POINT('',(67.167469851044,-20.2347962195863,-5.44975959172366));
#498=CARTESIAN_POINT('Origin',(67.167469851044,-95.2347962195863,-5.44975959172366));
#499=CARTESIAN_POINT('',(67.167469851044,-94.2347962195863,-6.44975959172367));
#500=CARTESIAN_POINT('Origin',(79.667469851044,-56.7347962195863,-6.44975959172367));
#501=CARTESIAN_POINT('',(0.,0.,0.));
#502=CARTESIAN_POINT('',(0.,0.,0.));
#503=CARTESIAN_POINT('',(-141.198257596536,60.0260879541535,-13.4862556320693));
#504=CARTESIAN_POINT('',(-112.198257596565,60.0260879541244,9.51374436793067));
#505=CARTESIAN_POINT('',(-74.0307913056123,39.7912917345673,-14.9360150070204));
#506=UNCERTAINTY_MEASURE_WITH_UNIT(LENGTH_MEASURE(0.01),#516,
'DISTANCE_ACCURACY_VALUE',
'Maximum model space distance between geometric entities at asserted c
onnectivities');
#507=UNCERTAINTY_MEASURE_WITH_UNIT(LENGTH_MEASURE(0.01),#516,
'DISTANCE_ACCURACY_VALUE',
'Maximum model space distance between geometric entities at asserted c
onnectivities');
#508=UNCERTAINTY_MEASURE_WITH_UNIT(LENGTH_MEASURE(0.01),#516,
'DISTANCE_ACCURACY_VALUE',
'Maximum model space distance between geometric entities at asserted c
onnectivities');
#509=UNCERTAINTY_MEASURE_WITH_UNIT(LENGTH_MEASURE(0.01),#516,
'DISTANCE_ACCURACY_VALUE',
'Maximum model space distance between geometric entities at asserted c
onnectivities');
#510=UNCERTAINTY_MEASURE_WITH_UNIT(LENGTH_MEASURE(0.01),#516,
'DISTANCE_ACCURACY_VALUE',
'Maximum model space distance between geometric entities at asserted c
onnectivities');
#511=(
GEOMETRIC_REPRESENTATION_CONTEXT(3)
GLOBAL_UNCERTAINTY_ASSIGNED_CONTEXT((#506))
GLOBAL_UNIT_ASSIGNED_CONTEXT((#516,#518,#519))
REPRESENTATION_CONTEXT('','3D')
);
#512=(
GEOMETRIC_REPRESENTATION_CONTEXT(3)
GLOBAL_UNCERTAINTY_ASSIGNED_CONTEXT((#507))
GLOBAL_UNIT_ASSIGNED_CONTEXT((#516,#518,#519))
REPRESENTATION_CONTEXT('','3D')
);
#513=(
GEOMETRIC_REPRESENTATION_CONTEXT(3)
GLOBAL_UNCERTAINTY_ASSIGNED_CONTEXT((#508))
GLOBAL_UNIT_ASSIGNED_CONTEXT((#516,#518,#519))
REPRESENTATION_CONTEXT('','3D')
);
#514=(
GEOMETRIC_REPRESENTATION_CONTEXT(3)
GLOBAL_UNCERTAINTY_ASSIGNED_CONTEXT((#509))
GLOBAL_UNIT_ASSIGNED_CONTEXT((#516,#518,#519))
REPRESENTATION_CONTEXT('','3D')
);
#515=(
GEOMETRIC_REPRESENTATION_CONTEXT(3)
GLOBAL_UNCERTAINTY_ASSIGNED_CONTEXT((#510))
GLOBAL_UNIT_ASSIGNED_CONTEXT((#516,#518,#519))
REPRESENTATION_CONTEXT('','3D')
);
#516=(
LENGTH_UNIT()
NAMED_UNIT(*)
SI_UNIT(.MILLI.,.METRE.)
);
#517=(
LENGTH_UNIT()
NAMED_UNIT(*)
SI_UNIT($,.METRE.)
);
#518=(
NAMED_UNIT(*)
PLANE_ANGLE_UNIT()
SI_UNIT($,.RADIAN.)
);
#519=(
NAMED_UNIT(*)
SI_UNIT($,.STERADIAN.)
SOLID_ANGLE_UNIT()
);
#520=SHAPE_DEFINITION_REPRESENTATION(#524,#531);
#521=SHAPE_DEFINITION_REPRESENTATION(#525,#532);
#522=SHAPE_DEFINITION_REPRESENTATION(#526,#533);
#523=SHAPE_DEFINITION_REPRESENTATION(#527,#534);
#524=PRODUCT_DEFINITION_SHAPE('',$,#536);
#525=PRODUCT_DEFINITION_SHAPE('',$,#537);
#526=PRODUCT_DEFINITION_SHAPE('',$,#538);
#527=PRODUCT_DEFINITION_SHAPE('',$,#539);
#528=PRODUCT_DEFINITION_SHAPE($,$,#20);
#529=PRODUCT_DEFINITION_SHAPE($,$,#21);
#530=PRODUCT_DEFINITION_SHAPE($,$,#22);
#531=SHAPE_REPRESENTATION('',(#318,#340,#341,#342),#511);
#532=SHAPE_REPRESENTATION('',(#319),#512);
#533=SHAPE_REPRESENTATION('',(#338),#513);
#534=SHAPE_REPRESENTATION('',(#339),#514);
#535=PRODUCT_DEFINITION_CONTEXT('part definition',#549,'design');
#536=PRODUCT_DEFINITION('frezovane_sklicko_celek',
'frezovane_sklicko_celek v1',#540,#535);
#537=PRODUCT_DEFINITION('Untitled v1','Untitled v1',#541,#535);
#538=PRODUCT_DEFINITION('V\X\EDko','V\X\EDko',#542,#535);
#539=PRODUCT_DEFINITION('Vlozka','Vlozka',#543,#535);
#540=PRODUCT_DEFINITION_FORMATION('',$,#551);
#541=PRODUCT_DEFINITION_FORMATION('',$,#552);
#542=PRODUCT_DEFINITION_FORMATION('',$,#553);
#543=PRODUCT_DEFINITION_FORMATION('',$,#554);
#544=PRODUCT_RELATED_PRODUCT_CATEGORY('frezovane_sklicko_celek v1',
'frezovane_sklicko_celek v1',(#551));
#545=PRODUCT_RELATED_PRODUCT_CATEGORY('Untitled v1','Untitled v1',(#552));
#546=PRODUCT_RELATED_PRODUCT_CATEGORY('V\X\EDko','V\X\EDko',(#553));
#547=PRODUCT_RELATED_PRODUCT_CATEGORY('Vlozka','Vlozka',(#554));
#548=APPLICATION_PROTOCOL_DEFINITION('international standard',
'automotive_design',2009,#549);
#549=APPLICATION_CONTEXT(
'Core Data for Automotive Mechanical Design Process');
#550=PRODUCT_CONTEXT('part definition',#549,'mechanical');
#551=PRODUCT('frezovane_sklicko_celek','frezovane_sklicko_celek v1',$,(#550));
#552=PRODUCT('Untitled v1','Untitled v1',$,(#550));
#553=PRODUCT('V\X\EDko','V\X\EDko',$,(#550));
#554=PRODUCT('Vlozka','Vlozka',$,(#550));
#555=PRESENTATION_STYLE_ASSIGNMENT((#557));
#556=PRESENTATION_STYLE_ASSIGNMENT((#558));
#557=SURFACE_STYLE_USAGE(.BOTH.,#559);
#558=SURFACE_STYLE_USAGE(.BOTH.,#560);
#559=SURFACE_SIDE_STYLE('',(#561));
#560=SURFACE_SIDE_STYLE('',(#562));
#561=SURFACE_STYLE_FILL_AREA(#563);
#562=SURFACE_STYLE_FILL_AREA(#564);
#563=FILL_AREA_STYLE('Steel - Satin',(#565));
#564=FILL_AREA_STYLE('Opaque(48,196,233)',(#566));
#565=FILL_AREA_STYLE_COLOUR('Steel - Satin',#567);
#566=FILL_AREA_STYLE_COLOUR('Opaque(48,196,233)',#568);
#567=COLOUR_RGB('Steel - Satin',0.627450980392157,0.627450980392157,0.627450980392157);
#568=COLOUR_RGB('Opaque(48,196,233)',0.188235294117647,0.768627450980392,
0.913725490196078);
ENDSEC;
END-ISO-10303-21;
