ISO-10303-21;
HEADER;
/* Generated by software containing ST-Developer
 * from STEP Tools, Inc. (www.steptools.com) 
 */

FILE_DESCRIPTION(
/* description */ ('Alibre Inc.'),
/* implementation_level */ '2;1');

FILE_NAME(
/* name */ 'export-24E24ED5-FC70-4784-8FD8-5CADE51B5A8B',
/* time_stamp */ '2021-04-26T10:35:09+02:00',
/* author */ (''),
/* organization */ (''),
/* preprocessor_version */ 'ST-DEVELOPER v17',
/* originating_system */ 'Alibre',
/* authorisation */ '');

FILE_SCHEMA (('CONFIG_CONTROL_DESIGN'));
ENDSEC;

DATA;
#10=MECHANICAL_CONTEXT('detailed design',#18,'mechanical');
#11=PRODUCT_RELATED_PRODUCT_CATEGORY('detail','',(#98));
#12=CC_DESIGN_SECURITY_CLASSIFICATION(#14,(#97));
#13=SECURITY_CLASSIFICATION_LEVEL('unclassified');
#14=SECURITY_CLASSIFICATION('name','Security for version',#13);
#15=SHAPE_DEFINITION_REPRESENTATION(#16,#596);
#16=PRODUCT_DEFINITION_SHAPE('','DefinitionDesc',#96);
#17=APPLICATION_PROTOCOL_DEFINITION('AP definition status',
'config_control_design',1994,#18);
#18=APPLICATION_CONTEXT(
'control the configuration of three dimensional design');
#19=DESIGN_CONTEXT('detailed design',#18,'design');
#20=PERSON_AND_ORGANIZATION_ROLE('creator');
#21=PERSON_AND_ORGANIZATION_ROLE('classification_officer');
#22=PERSON_AND_ORGANIZATION_ROLE('creator');
#23=PERSON_AND_ORGANIZATION_ROLE('design_supplier');
#24=PERSON_AND_ORGANIZATION_ROLE('design_owner');
#25=CC_DESIGN_PERSON_AND_ORGANIZATION_ASSIGNMENT(#57,#20,(#96));
#26=CC_DESIGN_PERSON_AND_ORGANIZATION_ASSIGNMENT(#60,#21,(#14));
#27=CC_DESIGN_PERSON_AND_ORGANIZATION_ASSIGNMENT(#61,#22,(#97));
#28=CC_DESIGN_PERSON_AND_ORGANIZATION_ASSIGNMENT(#62,#23,(#97));
#29=CC_DESIGN_PERSON_AND_ORGANIZATION_ASSIGNMENT(#63,#24,(#98));
#30=DATE_TIME_ROLE('creation_date');
#31=DATE_TIME_ROLE('classification_date');
#32=CC_DESIGN_DATE_AND_TIME_ASSIGNMENT(#86,#30,(#96));
#33=CC_DESIGN_DATE_AND_TIME_ASSIGNMENT(#89,#31,(#14));
#34=CC_DESIGN_APPROVAL(#93,(#96));
#35=CC_DESIGN_APPROVAL(#94,(#97));
#36=CC_DESIGN_APPROVAL(#95,(#14));
#37=APPROVAL_PERSON_ORGANIZATION(#56,#93,#64);
#38=APPROVAL_PERSON_ORGANIZATION(#58,#94,#65);
#39=APPROVAL_PERSON_ORGANIZATION(#59,#95,#66);
#40=ORGANIZATION('DEFINITION_APPROVEDBY_ORG_ID',
'DEFINITION_APPROVEDBY_ORG_NAME','DEFINITION_APPROVEDBY_ORG_DESCR');
#41=ORGANIZATION('DEF_CREATOR_ORG_ID','DEF_CREATOR_ORG_NAME',
'DEF_CREATOR_ORG_DESCR');
#42=ORGANIZATION('APPROVEDBY_ORG_ID','APPROVEDBY_ORG_NAME',
'APPROVEDBY_ORG_DESCR');
#43=ORGANIZATION('SECURITY_APPROVEDBY_ORG_ID',
'SECURITY_APPROVEDBY_ORG_NAME','SECURITY_APPROVEDBY_ORG_DESCR');
#44=ORGANIZATION('CLASSOFFICER_ORG_ID','CLASSOFFICER_ORG_NAME',
'CLASSOFFICER_ORG_DESCR');
#45=ORGANIZATION('CREATOR_ORG_ID','CREATOR_ORG_NAME',
'CREATOR_ORG_DESCR');
#46=ORGANIZATION('SUPPLIER_ORG_ID','SUPPLIER_ORG_NAME',
'SUPPLIER_ORG_DESCR');
#47=ORGANIZATION('OWNER_ORG_ID','OWNER_ORG_NAME','OWNER_ORG_DESCR');
#48=PERSON('DEFINITION_approverID','DEFINITION_APPROVEDBY_LASTNAME',
'DEFINITION_APPROVEDBY_FIRSTNAME',$,$,$);
#49=PERSON('DEF_createrID','DEF_CREATOR_LASTNAME',
'DEF_CREATOR_FIRSTNAME',$,$,$);
#50=PERSON('approverID','APPROVEDBY_LASTNAME','APPROVEDBY_FIRSTNAME',$,
$,$);
#51=PERSON('SECURITY_approverID','SECURITY_LASTNAME',
'SECURITY_APPROVEDBY_FIRSTNAME',$,$,$);
#52=PERSON('classifierID','CLASSOFFICER_LASTNAME',
'CLASSOFFICER_FIRSTNAME',$,$,$);
#53=PERSON('createrID','CREATOR_LASTNAME','CREATOR_FIRSTNAME',$,$,$);
#54=PERSON('supplierID','SUPPLIER_LASTNAME','SUPPLIER_FIRSTNAME',$,$,$);
#55=PERSON('ownerID','OWNER_LASTNAME','OWNER_FIRSTNAME',$,$,$);
#56=PERSON_AND_ORGANIZATION(#48,#40);
#57=PERSON_AND_ORGANIZATION(#49,#41);
#58=PERSON_AND_ORGANIZATION(#50,#42);
#59=PERSON_AND_ORGANIZATION(#51,#43);
#60=PERSON_AND_ORGANIZATION(#52,#44);
#61=PERSON_AND_ORGANIZATION(#53,#45);
#62=PERSON_AND_ORGANIZATION(#54,#46);
#63=PERSON_AND_ORGANIZATION(#55,#47);
#64=APPROVAL_ROLE('definition_approval');
#65=APPROVAL_ROLE('version_approval');
#66=APPROVAL_ROLE('security_approval');
#67=APPROVAL_DATE_TIME(#85,#93);
#68=APPROVAL_DATE_TIME(#87,#94);
#69=APPROVAL_DATE_TIME(#88,#95);
#70=COORDINATED_UNIVERSAL_TIME_OFFSET(1,0,.AHEAD.);
#71=COORDINATED_UNIVERSAL_TIME_OFFSET(1,0,.AHEAD.);
#72=COORDINATED_UNIVERSAL_TIME_OFFSET(1,0,.AHEAD.);
#73=COORDINATED_UNIVERSAL_TIME_OFFSET(1,0,.AHEAD.);
#74=COORDINATED_UNIVERSAL_TIME_OFFSET(1,0,.AHEAD.);
#75=LOCAL_TIME(14,1,12.,#70);
#76=LOCAL_TIME(14,1,12.,#71);
#77=LOCAL_TIME(14,1,12.,#72);
#78=LOCAL_TIME(14,1,12.,#73);
#79=LOCAL_TIME(14,1,12.,#74);
#80=CALENDAR_DATE(2017,3,2);
#81=CALENDAR_DATE(2017,3,2);
#82=CALENDAR_DATE(2017,3,2);
#83=CALENDAR_DATE(2017,3,2);
#84=CALENDAR_DATE(2017,3,2);
#85=DATE_AND_TIME(#80,#75);
#86=DATE_AND_TIME(#81,#76);
#87=DATE_AND_TIME(#82,#77);
#88=DATE_AND_TIME(#83,#78);
#89=DATE_AND_TIME(#84,#79);
#90=APPROVAL_STATUS('not_yet_approved');
#91=APPROVAL_STATUS('not_yet_approved');
#92=APPROVAL_STATUS('not_yet_approved');
#93=APPROVAL(#90,'defintion approval');
#94=APPROVAL(#91,'version approval');
#95=APPROVAL(#92,'security approval');
#96=PRODUCT_DEFINITION('DefinitionID','DefinitionDesc',#97,#19);
#97=PRODUCT_DEFINITION_FORMATION_WITH_SPECIFIED_SOURCE(
'PRODUCT_VERSION_ID','PRODUCT_VERSION_DESCR',#98,.NOT_KNOWN.);
#98=PRODUCT('ID_1','Nav\X\EDja\X2\010D\X0\ mal\X\FD part 2','',(#10));
#99=(
LENGTH_UNIT()
NAMED_UNIT(*)
SI_UNIT(.CENTI.,.METRE.)
);
#100=(
NAMED_UNIT(*)
PLANE_ANGLE_UNIT()
SI_UNIT($,.RADIAN.)
);
#101=(
NAMED_UNIT(*)
SI_UNIT($,.STERADIAN.)
SOLID_ANGLE_UNIT()
);
#102=UNCERTAINTY_MEASURE_WITH_UNIT(LENGTH_MEASURE(1.E-6),#99,
'DISTANCE_ACCURACY_VALUE',
'Maximum model space distance between geometric entities at asserted c
onnectivities');
#103=(
GEOMETRIC_REPRESENTATION_CONTEXT(3)
GLOBAL_UNCERTAINTY_ASSIGNED_CONTEXT((#102))
GLOBAL_UNIT_ASSIGNED_CONTEXT((#101,#100,#99))
REPRESENTATION_CONTEXT('ID1','3D')
);
#104=PLANE('',#378);
#105=PLANE('',#398);
#106=PLANE('',#402);
#107=PLANE('',#417);
#108=PLANE('',#418);
#109=CYLINDRICAL_SURFACE('',#373,0.5);
#110=CYLINDRICAL_SURFACE('',#383,0.275);
#111=CYLINDRICAL_SURFACE('',#387,0.275);
#112=CYLINDRICAL_SURFACE('',#391,0.275);
#113=CYLINDRICAL_SURFACE('',#396,0.825);
#114=CYLINDRICAL_SURFACE('',#405,1.775);
#115=CYLINDRICAL_SURFACE('',#409,2.075);
#116=CYLINDRICAL_SURFACE('',#413,3.425);
#117=CIRCLE('',#372,0.5);
#118=CIRCLE('',#374,0.5);
#119=CIRCLE('',#376,0.275);
#120=CIRCLE('',#377,0.575);
#121=CIRCLE('',#379,1.825);
#122=CIRCLE('',#380,3.375);
#123=CIRCLE('',#381,0.575);
#124=CIRCLE('',#382,0.575);
#125=CIRCLE('',#384,0.275);
#126=CIRCLE('',#386,0.275);
#127=CIRCLE('',#388,0.275);
#128=CIRCLE('',#390,0.275);
#129=CIRCLE('',#392,0.275);
#130=CIRCLE('',#394,0.825);
#131=CIRCLE('',#395,0.875);
#132=CIRCLE('',#397,0.825);
#133=CIRCLE('',#399,2.025);
#134=CIRCLE('',#401,0.775);
#135=CIRCLE('',#404,1.775);
#136=CIRCLE('',#406,1.775);
#137=CIRCLE('',#408,2.075);
#138=CIRCLE('',#410,2.075);
#139=CIRCLE('',#412,3.425);
#140=CIRCLE('',#414,3.425);
#141=CIRCLE('',#416,3.375);
#142=EDGE_CURVE('',#275,#275,#117,.T.);
#143=EDGE_CURVE('',#276,#276,#118,.T.);
#144=EDGE_CURVE('',#277,#277,#119,.T.);
#145=EDGE_CURVE('',#278,#278,#120,.T.);
#146=EDGE_CURVE('',#279,#279,#121,.T.);
#147=EDGE_CURVE('',#280,#278,#122,.T.);
#148=EDGE_CURVE('',#281,#280,#122,.T.);
#149=EDGE_CURVE('',#281,#281,#123,.T.);
#150=EDGE_CURVE('',#282,#281,#122,.T.);
#151=EDGE_CURVE('',#282,#282,#124,.T.);
#152=EDGE_CURVE('',#278,#282,#122,.T.);
#153=EDGE_CURVE('',#283,#283,#125,.T.);
#154=EDGE_CURVE('',#284,#284,#126,.T.);
#155=EDGE_CURVE('',#285,#285,#127,.T.);
#156=EDGE_CURVE('',#286,#286,#128,.T.);
#157=EDGE_CURVE('',#287,#287,#129,.T.);
#158=EDGE_CURVE('',#288,#288,#130,.T.);
#159=EDGE_CURVE('',#289,#289,#131,.T.);
#160=EDGE_CURVE('',#290,#290,#132,.T.);
#161=EDGE_CURVE('',#291,#291,#133,.T.);
#162=EDGE_CURVE('',#292,#292,#134,.T.);
#163=EDGE_CURVE('',#293,#293,#135,.T.);
#164=EDGE_CURVE('',#294,#294,#136,.T.);
#165=EDGE_CURVE('',#295,#295,#137,.T.);
#166=EDGE_CURVE('',#296,#296,#138,.T.);
#167=EDGE_CURVE('',#297,#297,#139,.T.);
#168=EDGE_CURVE('',#298,#298,#140,.T.);
#169=EDGE_CURVE('',#299,#299,#141,.T.);
#170=ORIENTED_EDGE('',*,*,#142,.T.);
#171=ORIENTED_EDGE('',*,*,#143,.F.);
#172=ORIENTED_EDGE('',*,*,#142,.F.);
#173=ORIENTED_EDGE('',*,*,#144,.T.);
#174=ORIENTED_EDGE('',*,*,#145,.T.);
#175=ORIENTED_EDGE('',*,*,#146,.F.);
#176=ORIENTED_EDGE('',*,*,#147,.F.);
#177=ORIENTED_EDGE('',*,*,#148,.F.);
#178=ORIENTED_EDGE('',*,*,#149,.F.);
#179=ORIENTED_EDGE('',*,*,#150,.F.);
#180=ORIENTED_EDGE('',*,*,#151,.F.);
#181=ORIENTED_EDGE('',*,*,#152,.F.);
#182=ORIENTED_EDGE('',*,*,#145,.F.);
#183=ORIENTED_EDGE('',*,*,#153,.F.);
#184=ORIENTED_EDGE('',*,*,#144,.F.);
#185=ORIENTED_EDGE('',*,*,#154,.T.);
#186=ORIENTED_EDGE('',*,*,#151,.T.);
#187=ORIENTED_EDGE('',*,*,#155,.F.);
#188=ORIENTED_EDGE('',*,*,#154,.F.);
#189=ORIENTED_EDGE('',*,*,#156,.T.);
#190=ORIENTED_EDGE('',*,*,#149,.T.);
#191=ORIENTED_EDGE('',*,*,#157,.F.);
#192=ORIENTED_EDGE('',*,*,#156,.F.);
#193=ORIENTED_EDGE('',*,*,#158,.T.);
#194=ORIENTED_EDGE('',*,*,#159,.T.);
#195=ORIENTED_EDGE('',*,*,#160,.F.);
#196=ORIENTED_EDGE('',*,*,#158,.F.);
#197=ORIENTED_EDGE('',*,*,#161,.F.);
#198=ORIENTED_EDGE('',*,*,#159,.F.);
#199=ORIENTED_EDGE('',*,*,#162,.T.);
#200=ORIENTED_EDGE('',*,*,#160,.T.);
#201=ORIENTED_EDGE('',*,*,#143,.T.);
#202=ORIENTED_EDGE('',*,*,#162,.F.);
#203=ORIENTED_EDGE('',*,*,#163,.T.);
#204=ORIENTED_EDGE('',*,*,#146,.T.);
#205=ORIENTED_EDGE('',*,*,#164,.F.);
#206=ORIENTED_EDGE('',*,*,#163,.F.);
#207=ORIENTED_EDGE('',*,*,#161,.T.);
#208=ORIENTED_EDGE('',*,*,#165,.T.);
#209=ORIENTED_EDGE('',*,*,#166,.F.);
#210=ORIENTED_EDGE('',*,*,#165,.F.);
#211=ORIENTED_EDGE('',*,*,#147,.T.);
#212=ORIENTED_EDGE('',*,*,#152,.T.);
#213=ORIENTED_EDGE('',*,*,#150,.T.);
#214=ORIENTED_EDGE('',*,*,#148,.T.);
#215=ORIENTED_EDGE('',*,*,#167,.T.);
#216=ORIENTED_EDGE('',*,*,#168,.F.);
#217=ORIENTED_EDGE('',*,*,#167,.F.);
#218=ORIENTED_EDGE('',*,*,#169,.T.);
#219=ORIENTED_EDGE('',*,*,#168,.T.);
#220=ORIENTED_EDGE('',*,*,#157,.T.);
#221=ORIENTED_EDGE('',*,*,#155,.T.);
#222=ORIENTED_EDGE('',*,*,#153,.T.);
#223=ORIENTED_EDGE('',*,*,#166,.T.);
#224=ORIENTED_EDGE('',*,*,#169,.F.);
#225=ORIENTED_EDGE('',*,*,#164,.T.);
#226=EDGE_LOOP('',(#170));
#227=EDGE_LOOP('',(#171));
#228=EDGE_LOOP('',(#172));
#229=EDGE_LOOP('',(#173));
#230=EDGE_LOOP('',(#174));
#231=EDGE_LOOP('',(#175));
#232=EDGE_LOOP('',(#176,#177,#178,#179,#180,#181,#182));
#233=EDGE_LOOP('',(#183));
#234=EDGE_LOOP('',(#184));
#235=EDGE_LOOP('',(#185));
#236=EDGE_LOOP('',(#186));
#237=EDGE_LOOP('',(#187));
#238=EDGE_LOOP('',(#188));
#239=EDGE_LOOP('',(#189));
#240=EDGE_LOOP('',(#190));
#241=EDGE_LOOP('',(#191));
#242=EDGE_LOOP('',(#192));
#243=EDGE_LOOP('',(#193));
#244=EDGE_LOOP('',(#194));
#245=EDGE_LOOP('',(#195));
#246=EDGE_LOOP('',(#196));
#247=EDGE_LOOP('',(#197));
#248=EDGE_LOOP('',(#198));
#249=EDGE_LOOP('',(#199));
#250=EDGE_LOOP('',(#200));
#251=EDGE_LOOP('',(#201));
#252=EDGE_LOOP('',(#202));
#253=EDGE_LOOP('',(#203));
#254=EDGE_LOOP('',(#204));
#255=EDGE_LOOP('',(#205));
#256=EDGE_LOOP('',(#206));
#257=EDGE_LOOP('',(#207));
#258=EDGE_LOOP('',(#208));
#259=EDGE_LOOP('',(#209));
#260=EDGE_LOOP('',(#210));
#261=EDGE_LOOP('',(#211,#212,#213,#214));
#262=EDGE_LOOP('',(#215));
#263=EDGE_LOOP('',(#216));
#264=EDGE_LOOP('',(#217));
#265=EDGE_LOOP('',(#218));
#266=EDGE_LOOP('',(#219));
#267=EDGE_LOOP('',(#220));
#268=EDGE_LOOP('',(#221));
#269=EDGE_LOOP('',(#222));
#270=EDGE_LOOP('',(#223));
#271=EDGE_LOOP('',(#224));
#272=EDGE_LOOP('',(#225));
#273=VERTEX_LOOP('',#274);
#274=VERTEX_POINT('',#420);
#275=VERTEX_POINT('',#422);
#276=VERTEX_POINT('',#425);
#277=VERTEX_POINT('',#428);
#278=VERTEX_POINT('',#430);
#279=VERTEX_POINT('',#433);
#280=VERTEX_POINT('',#435);
#281=VERTEX_POINT('',#436);
#282=VERTEX_POINT('',#438);
#283=VERTEX_POINT('',#442);
#284=VERTEX_POINT('',#445);
#285=VERTEX_POINT('',#448);
#286=VERTEX_POINT('',#451);
#287=VERTEX_POINT('',#454);
#288=VERTEX_POINT('',#457);
#289=VERTEX_POINT('',#459);
#290=VERTEX_POINT('',#462);
#291=VERTEX_POINT('',#465);
#292=VERTEX_POINT('',#468);
#293=VERTEX_POINT('',#472);
#294=VERTEX_POINT('',#475);
#295=VERTEX_POINT('',#478);
#296=VERTEX_POINT('',#481);
#297=VERTEX_POINT('',#484);
#298=VERTEX_POINT('',#487);
#299=VERTEX_POINT('',#490);
#300=FACE_BOUND('',#273,.T.);
#301=FACE_BOUND('',#226,.T.);
#302=FACE_BOUND('',#227,.T.);
#303=FACE_BOUND('',#228,.T.);
#304=FACE_BOUND('',#229,.T.);
#305=FACE_BOUND('',#230,.T.);
#306=FACE_BOUND('',#231,.T.);
#307=FACE_BOUND('',#232,.T.);
#308=FACE_BOUND('',#233,.T.);
#309=FACE_BOUND('',#234,.T.);
#310=FACE_BOUND('',#235,.T.);
#311=FACE_BOUND('',#236,.T.);
#312=FACE_BOUND('',#237,.T.);
#313=FACE_BOUND('',#238,.T.);
#314=FACE_BOUND('',#239,.T.);
#315=FACE_BOUND('',#240,.T.);
#316=FACE_BOUND('',#241,.T.);
#317=FACE_BOUND('',#242,.T.);
#318=FACE_BOUND('',#243,.T.);
#319=FACE_BOUND('',#244,.T.);
#320=FACE_BOUND('',#245,.T.);
#321=FACE_BOUND('',#246,.T.);
#322=FACE_BOUND('',#247,.T.);
#323=FACE_BOUND('',#248,.T.);
#324=FACE_BOUND('',#249,.T.);
#325=FACE_BOUND('',#250,.T.);
#326=FACE_BOUND('',#251,.T.);
#327=FACE_BOUND('',#252,.T.);
#328=FACE_BOUND('',#253,.T.);
#329=FACE_BOUND('',#254,.T.);
#330=FACE_BOUND('',#255,.T.);
#331=FACE_BOUND('',#256,.T.);
#332=FACE_BOUND('',#257,.T.);
#333=FACE_BOUND('',#258,.T.);
#334=FACE_BOUND('',#259,.T.);
#335=FACE_BOUND('',#260,.T.);
#336=FACE_BOUND('',#261,.T.);
#337=FACE_BOUND('',#262,.T.);
#338=FACE_BOUND('',#263,.T.);
#339=FACE_BOUND('',#264,.T.);
#340=FACE_BOUND('',#265,.T.);
#341=FACE_BOUND('',#266,.T.);
#342=FACE_BOUND('',#267,.T.);
#343=FACE_BOUND('',#268,.T.);
#344=FACE_BOUND('',#269,.T.);
#345=FACE_BOUND('',#270,.T.);
#346=FACE_BOUND('',#271,.T.);
#347=FACE_BOUND('',#272,.T.);
#348=ADVANCED_FACE('',(#300,#301),#584,.F.);
#349=ADVANCED_FACE('',(#302,#303),#109,.F.);
#350=ADVANCED_FACE('',(#304,#305),#585,.F.);
#351=ADVANCED_FACE('',(#306,#307),#104,.F.);
#352=ADVANCED_FACE('',(#308,#309),#110,.F.);
#353=ADVANCED_FACE('',(#310,#311),#586,.F.);
#354=ADVANCED_FACE('',(#312,#313),#111,.F.);
#355=ADVANCED_FACE('',(#314,#315),#587,.F.);
#356=ADVANCED_FACE('',(#316,#317),#112,.F.);
#357=ADVANCED_FACE('',(#318,#319),#588,.T.);
#358=ADVANCED_FACE('',(#320,#321),#113,.T.);
#359=ADVANCED_FACE('',(#322,#323),#105,.T.);
#360=ADVANCED_FACE('',(#324,#325),#589,.T.);
#361=ADVANCED_FACE('',(#326,#327),#106,.T.);
#362=ADVANCED_FACE('',(#328,#329),#590,.F.);
#363=ADVANCED_FACE('',(#330,#331),#114,.F.);
#364=ADVANCED_FACE('',(#332,#333),#591,.T.);
#365=ADVANCED_FACE('',(#334,#335),#115,.T.);
#366=ADVANCED_FACE('',(#336,#337),#592,.T.);
#367=ADVANCED_FACE('',(#338,#339),#116,.T.);
#368=ADVANCED_FACE('',(#340,#341),#593,.T.);
#369=ADVANCED_FACE('',(#342,#343,#344,#345,#346),#107,.T.);
#370=ADVANCED_FACE('',(#347),#108,.T.);
#371=AXIS2_PLACEMENT_3D('',#419,#493,#494);
#372=AXIS2_PLACEMENT_3D('',#421,#495,#496);
#373=AXIS2_PLACEMENT_3D('',#423,#497,#498);
#374=AXIS2_PLACEMENT_3D('',#424,#499,#500);
#375=AXIS2_PLACEMENT_3D('',#426,#501,#502);
#376=AXIS2_PLACEMENT_3D('',#427,#503,#504);
#377=AXIS2_PLACEMENT_3D('',#429,#505,#506);
#378=AXIS2_PLACEMENT_3D('',#431,#507,$);
#379=AXIS2_PLACEMENT_3D('',#432,#508,#509);
#380=AXIS2_PLACEMENT_3D('',#434,#510,#511);
#381=AXIS2_PLACEMENT_3D('',#437,#512,#513);
#382=AXIS2_PLACEMENT_3D('',#439,#514,#515);
#383=AXIS2_PLACEMENT_3D('',#440,#516,#517);
#384=AXIS2_PLACEMENT_3D('',#441,#518,#519);
#385=AXIS2_PLACEMENT_3D('',#443,#520,#521);
#386=AXIS2_PLACEMENT_3D('',#444,#522,#523);
#387=AXIS2_PLACEMENT_3D('',#446,#524,#525);
#388=AXIS2_PLACEMENT_3D('',#447,#526,#527);
#389=AXIS2_PLACEMENT_3D('',#449,#528,#529);
#390=AXIS2_PLACEMENT_3D('',#450,#530,#531);
#391=AXIS2_PLACEMENT_3D('',#452,#532,#533);
#392=AXIS2_PLACEMENT_3D('',#453,#534,#535);
#393=AXIS2_PLACEMENT_3D('',#455,#536,#537);
#394=AXIS2_PLACEMENT_3D('',#456,#538,#539);
#395=AXIS2_PLACEMENT_3D('',#458,#540,#541);
#396=AXIS2_PLACEMENT_3D('',#460,#542,#543);
#397=AXIS2_PLACEMENT_3D('',#461,#544,#545);
#398=AXIS2_PLACEMENT_3D('',#463,#546,$);
#399=AXIS2_PLACEMENT_3D('',#464,#547,#548);
#400=AXIS2_PLACEMENT_3D('',#466,#549,#550);
#401=AXIS2_PLACEMENT_3D('',#467,#551,#552);
#402=AXIS2_PLACEMENT_3D('',#469,#553,$);
#403=AXIS2_PLACEMENT_3D('',#470,#554,#555);
#404=AXIS2_PLACEMENT_3D('',#471,#556,#557);
#405=AXIS2_PLACEMENT_3D('',#473,#558,#559);
#406=AXIS2_PLACEMENT_3D('',#474,#560,#561);
#407=AXIS2_PLACEMENT_3D('',#476,#562,#563);
#408=AXIS2_PLACEMENT_3D('',#477,#564,#565);
#409=AXIS2_PLACEMENT_3D('',#479,#566,#567);
#410=AXIS2_PLACEMENT_3D('',#480,#568,#569);
#411=AXIS2_PLACEMENT_3D('',#482,#570,#571);
#412=AXIS2_PLACEMENT_3D('',#483,#572,#573);
#413=AXIS2_PLACEMENT_3D('',#485,#574,#575);
#414=AXIS2_PLACEMENT_3D('',#486,#576,#577);
#415=AXIS2_PLACEMENT_3D('',#488,#578,#579);
#416=AXIS2_PLACEMENT_3D('',#489,#580,#581);
#417=AXIS2_PLACEMENT_3D('',#491,#582,$);
#418=AXIS2_PLACEMENT_3D('',#492,#583,$);
#419=CARTESIAN_POINT('',(0.,0.,5.7));
#420=CARTESIAN_POINT('',(0.,0.,5.2));
#421=CARTESIAN_POINT('',(0.,0.,5.7));
#422=CARTESIAN_POINT('',(-0.5,-6.12303176911189E-17,5.7));
#423=CARTESIAN_POINT('',(0.,0.,9.4));
#424=CARTESIAN_POINT('',(0.,0.,9.4));
#425=CARTESIAN_POINT('',(0.5,0.,9.4));
#426=CARTESIAN_POINT('',(0.,2.8,0.));
#427=CARTESIAN_POINT('',(0.,2.8,0.3));
#428=CARTESIAN_POINT('',(-0.275,2.8,0.3));
#429=CARTESIAN_POINT('',(0.,2.8,0.));
#430=CARTESIAN_POINT('',(0.,3.375,0.));
#431=CARTESIAN_POINT('',(0.,0.,0.));
#432=CARTESIAN_POINT('',(0.,0.,0.));
#433=CARTESIAN_POINT('',(-1.825,2.23490659572584E-16,0.));
#434=CARTESIAN_POINT('',(0.,0.,0.));
#435=CARTESIAN_POINT('',(3.375,4.13304644415052E-16,0.));
#436=CARTESIAN_POINT('',(2.92283573777248,-1.6875,0.));
#437=CARTESIAN_POINT('',(2.42487113059643,-1.4,0.));
#438=CARTESIAN_POINT('',(-2.92283573777248,-1.6875,0.));
#439=CARTESIAN_POINT('',(-2.42487113059643,-1.4,0.));
#440=CARTESIAN_POINT('',(0.,2.8,13.49833323044));
#441=CARTESIAN_POINT('',(0.,2.8,0.65));
#442=CARTESIAN_POINT('',(0.275,2.8,0.65));
#443=CARTESIAN_POINT('',(-2.42487113059643,-1.4,0.));
#444=CARTESIAN_POINT('',(-2.42487113059643,-1.4,0.3));
#445=CARTESIAN_POINT('',(-2.28737113059643,-1.63815698604072,0.3));
#446=CARTESIAN_POINT('',(-2.42487113059643,-1.4,13.49833323044));
#447=CARTESIAN_POINT('',(-2.42487113059643,-1.4,0.65));
#448=CARTESIAN_POINT('',(-2.56237113059643,-1.16184301395928,0.65));
#449=CARTESIAN_POINT('',(2.42487113059643,-1.4,0.));
#450=CARTESIAN_POINT('',(2.42487113059643,-1.4,0.3));
#451=CARTESIAN_POINT('',(2.56237113059643,-1.16184301395928,0.3));
#452=CARTESIAN_POINT('',(2.42487113059643,-1.4,13.49833323044));
#453=CARTESIAN_POINT('',(2.42487113059643,-1.4,0.65));
#454=CARTESIAN_POINT('',(2.28737113059643,-1.63815698604072,0.65));
#455=CARTESIAN_POINT('',(0.,0.,2.7));
#456=CARTESIAN_POINT('',(0.,0.,2.75));
#457=CARTESIAN_POINT('',(0.825,-1.01030024190346E-16,2.75));
#458=CARTESIAN_POINT('',(0.,0.,2.7));
#459=CARTESIAN_POINT('',(0.875,1.07153055959458E-16,2.7));
#460=CARTESIAN_POINT('',(0.,0.,2.7));
#461=CARTESIAN_POINT('',(0.,0.,9.35));
#462=CARTESIAN_POINT('',(0.825,1.01030024190346E-16,9.35));
#463=CARTESIAN_POINT('',(0.,0.,2.7));
#464=CARTESIAN_POINT('',(0.,0.,2.7));
#465=CARTESIAN_POINT('',(2.025,-2.47982786649031E-16,2.7));
#466=CARTESIAN_POINT('',(0.,0.,9.4));
#467=CARTESIAN_POINT('',(0.,0.,9.4));
#468=CARTESIAN_POINT('',(0.775,-9.49069924212342E-17,9.4));
#469=CARTESIAN_POINT('',(0.,0.,9.4));
#470=CARTESIAN_POINT('',(0.,0.,0.));
#471=CARTESIAN_POINT('',(0.,0.,0.05));
#472=CARTESIAN_POINT('',(-1.775,-2.17367627803472E-16,0.05));
#473=CARTESIAN_POINT('',(0.,0.,0.));
#474=CARTESIAN_POINT('',(0.,0.,0.8));
#475=CARTESIAN_POINT('',(-1.775,0.,0.8));
#476=CARTESIAN_POINT('',(0.,0.,2.7));
#477=CARTESIAN_POINT('',(0.,0.,2.65));
#478=CARTESIAN_POINT('',(2.075,2.54105818418143E-16,2.65));
#479=CARTESIAN_POINT('',(0.,0.,0.65));
#480=CARTESIAN_POINT('',(0.,0.,0.65));
#481=CARTESIAN_POINT('',(2.075,0.,0.65));
#482=CARTESIAN_POINT('',(0.,0.,0.));
#483=CARTESIAN_POINT('',(0.,0.,0.0499999999999999));
#484=CARTESIAN_POINT('',(3.425,-4.19427676184164E-16,0.0499999999999999));
#485=CARTESIAN_POINT('',(0.,0.,0.));
#486=CARTESIAN_POINT('',(0.,0.,0.6));
#487=CARTESIAN_POINT('',(3.425,4.19427676184164E-16,0.6));
#488=CARTESIAN_POINT('',(0.,0.,0.65));
#489=CARTESIAN_POINT('',(0.,0.,0.65));
#490=CARTESIAN_POINT('',(3.375,-4.13304644415052E-16,0.65));
#491=CARTESIAN_POINT('',(0.,0.,0.65));
#492=CARTESIAN_POINT('',(0.,0.,0.8));
#493=DIRECTION('',(0.,0.,1.));
#494=DIRECTION('',(0.5,0.,0.));
#495=DIRECTION('',(0.,0.,1.));
#496=DIRECTION('',(0.5,0.,0.));
#497=DIRECTION('',(0.,0.,-1.));
#498=DIRECTION('',(0.5,0.,0.));
#499=DIRECTION('',(0.,0.,-1.));
#500=DIRECTION('',(0.5,0.,0.));
#501=DIRECTION('',(0.,0.,-1.));
#502=DIRECTION('',(0.575,0.,0.));
#503=DIRECTION('',(0.,0.,1.));
#504=DIRECTION('',(0.275,0.,0.));
#505=DIRECTION('',(0.,0.,-1.));
#506=DIRECTION('',(0.575,0.,0.));
#507=DIRECTION('',(0.,0.,1.));
#508=DIRECTION('',(0.,0.,-1.));
#509=DIRECTION('',(1.825,0.,0.));
#510=DIRECTION('',(0.,0.,1.));
#511=DIRECTION('',(-3.375,0.,0.));
#512=DIRECTION('',(0.,0.,-1.));
#513=DIRECTION('',(-0.287500000000001,-0.497964607176052,0.));
#514=DIRECTION('',(0.,0.,-1.));
#515=DIRECTION('',(-0.287500000000001,0.497964607176052,0.));
#516=DIRECTION('',(0.,0.,-1.));
#517=DIRECTION('',(-0.275,0.,0.));
#518=DIRECTION('',(0.,0.,-1.));
#519=DIRECTION('',(-0.275,0.,0.));
#520=DIRECTION('',(0.,0.,-1.));
#521=DIRECTION('',(-0.287500000000001,0.497964607176052,0.));
#522=DIRECTION('',(0.,0.,1.));
#523=DIRECTION('',(-0.1375,0.238156986040721,0.));
#524=DIRECTION('',(0.,0.,-1.));
#525=DIRECTION('',(0.1375,-0.238156986040721,0.));
#526=DIRECTION('',(0.,0.,-1.));
#527=DIRECTION('',(0.1375,-0.238156986040721,0.));
#528=DIRECTION('',(0.,0.,-1.));
#529=DIRECTION('',(-0.287500000000001,-0.497964607176052,0.));
#530=DIRECTION('',(0.,0.,1.));
#531=DIRECTION('',(-0.1375,-0.238156986040721,0.));
#532=DIRECTION('',(0.,0.,-1.));
#533=DIRECTION('',(0.1375,0.238156986040721,0.));
#534=DIRECTION('',(0.,0.,-1.));
#535=DIRECTION('',(0.1375,0.238156986040721,0.));
#536=DIRECTION('',(0.,0.,-1.));
#537=DIRECTION('',(-0.875,0.,0.));
#538=DIRECTION('',(0.,0.,-1.));
#539=DIRECTION('',(-0.825,0.,0.));
#540=DIRECTION('',(0.,0.,1.));
#541=DIRECTION('',(-0.875,0.,0.));
#542=DIRECTION('',(0.,0.,1.));
#543=DIRECTION('',(0.825,0.,0.));
#544=DIRECTION('',(0.,0.,1.));
#545=DIRECTION('',(-0.825,0.,0.));
#546=DIRECTION('',(0.,0.,1.));
#547=DIRECTION('',(0.,0.,-1.));
#548=DIRECTION('',(-2.025,0.,0.));
#549=DIRECTION('',(0.,0.,-1.));
#550=DIRECTION('',(-0.775,0.,0.));
#551=DIRECTION('',(0.,0.,-1.));
#552=DIRECTION('',(-0.775,0.,0.));
#553=DIRECTION('',(0.,0.,1.));
#554=DIRECTION('',(0.,0.,-1.));
#555=DIRECTION('',(1.825,0.,0.));
#556=DIRECTION('',(0.,0.,1.));
#557=DIRECTION('',(1.775,0.,0.));
#558=DIRECTION('',(0.,0.,1.));
#559=DIRECTION('',(-1.775,0.,0.));
#560=DIRECTION('',(0.,0.,-1.));
#561=DIRECTION('',(-1.775,0.,0.));
#562=DIRECTION('',(0.,0.,-1.));
#563=DIRECTION('',(-2.025,0.,0.));
#564=DIRECTION('',(0.,0.,1.));
#565=DIRECTION('',(-2.075,0.,0.));
#566=DIRECTION('',(0.,0.,1.));
#567=DIRECTION('',(2.075,0.,0.));
#568=DIRECTION('',(0.,0.,-1.));
#569=DIRECTION('',(2.075,0.,0.));
#570=DIRECTION('',(0.,0.,1.));
#571=DIRECTION('',(-3.375,0.,0.));
#572=DIRECTION('',(0.,0.,-1.));
#573=DIRECTION('',(-3.425,0.,0.));
#574=DIRECTION('',(0.,0.,1.));
#575=DIRECTION('',(3.425,0.,0.));
#576=DIRECTION('',(0.,0.,1.));
#577=DIRECTION('',(-3.425,0.,0.));
#578=DIRECTION('',(0.,0.,-1.));
#579=DIRECTION('',(-3.375,0.,0.));
#580=DIRECTION('',(0.,0.,-1.));
#581=DIRECTION('',(-3.375,0.,0.));
#582=DIRECTION('',(0.,0.,1.));
#583=DIRECTION('',(0.,0.,-1.));
#584=CONICAL_SURFACE('',#371,0.5,0.785398163397448);
#585=CONICAL_SURFACE('',#375,0.575,0.785398163397448);
#586=CONICAL_SURFACE('',#385,0.575,0.785398163397448);
#587=CONICAL_SURFACE('',#389,0.575,0.785398163397448);
#588=CONICAL_SURFACE('',#393,0.875,0.785398163397448);
#589=CONICAL_SURFACE('',#400,0.775,0.785398163397448);
#590=CONICAL_SURFACE('',#403,1.825,0.785398163397448);
#591=CONICAL_SURFACE('',#407,2.025,0.785398163397448);
#592=CONICAL_SURFACE('',#411,3.375,0.785398163397448);
#593=CONICAL_SURFACE('',#415,3.375,0.785398163397448);
#594=CLOSED_SHELL('',(#348,#349,#350,#351,#352,#353,#354,#355,#356,#357,
#358,#359,#360,#361,#362,#363,#364,#365,#366,#367,#368,#369,#370));
#595=MANIFOLD_SOLID_BREP('',#594);
#596=ADVANCED_BREP_SHAPE_REPRESENTATION('',(#595),#103);
ENDSEC;
END-ISO-10303-21;
