ISO-10303-21;
HEADER;
/* Generated by software containing ST-Developer
 * from STEP Tools, Inc. (www.steptools.com) 
 */

FILE_DESCRIPTION(
/* description */ ('Alibre Inc.'),
/* implementation_level */ '2;1');

FILE_NAME(
/* name */ 'export-ED3F36CF-1D3C-4AD8-99E1-8CBF8966113E',
/* time_stamp */ '2021-04-26T10:34:51+02:00',
/* author */ (''),
/* organization */ (''),
/* preprocessor_version */ 'ST-DEVELOPER v17',
/* originating_system */ 'Alibre',
/* authorisation */ '');

FILE_SCHEMA (('CONFIG_CONTROL_DESIGN'));
ENDSEC;

DATA;
#10=MECHANICAL_CONTEXT('detailed design',#18,'mechanical');
#11=PRODUCT_RELATED_PRODUCT_CATEGORY('detail','',(#98));
#12=CC_DESIGN_SECURITY_CLASSIFICATION(#14,(#97));
#13=SECURITY_CLASSIFICATION_LEVEL('unclassified');
#14=SECURITY_CLASSIFICATION('name','Security for version',#13);
#15=SHAPE_DEFINITION_REPRESENTATION(#16,#485);
#16=PRODUCT_DEFINITION_SHAPE('','DefinitionDesc',#96);
#17=APPLICATION_PROTOCOL_DEFINITION('AP definition status',
'config_control_design',1994,#18);
#18=APPLICATION_CONTEXT(
'control the configuration of three dimensional design');
#19=DESIGN_CONTEXT('detailed design',#18,'design');
#20=PERSON_AND_ORGANIZATION_ROLE('creator');
#21=PERSON_AND_ORGANIZATION_ROLE('classification_officer');
#22=PERSON_AND_ORGANIZATION_ROLE('creator');
#23=PERSON_AND_ORGANIZATION_ROLE('design_supplier');
#24=PERSON_AND_ORGANIZATION_ROLE('design_owner');
#25=CC_DESIGN_PERSON_AND_ORGANIZATION_ASSIGNMENT(#57,#20,(#96));
#26=CC_DESIGN_PERSON_AND_ORGANIZATION_ASSIGNMENT(#60,#21,(#14));
#27=CC_DESIGN_PERSON_AND_ORGANIZATION_ASSIGNMENT(#61,#22,(#97));
#28=CC_DESIGN_PERSON_AND_ORGANIZATION_ASSIGNMENT(#62,#23,(#97));
#29=CC_DESIGN_PERSON_AND_ORGANIZATION_ASSIGNMENT(#63,#24,(#98));
#30=DATE_TIME_ROLE('creation_date');
#31=DATE_TIME_ROLE('classification_date');
#32=CC_DESIGN_DATE_AND_TIME_ASSIGNMENT(#86,#30,(#96));
#33=CC_DESIGN_DATE_AND_TIME_ASSIGNMENT(#89,#31,(#14));
#34=CC_DESIGN_APPROVAL(#93,(#96));
#35=CC_DESIGN_APPROVAL(#94,(#97));
#36=CC_DESIGN_APPROVAL(#95,(#14));
#37=APPROVAL_PERSON_ORGANIZATION(#56,#93,#64);
#38=APPROVAL_PERSON_ORGANIZATION(#58,#94,#65);
#39=APPROVAL_PERSON_ORGANIZATION(#59,#95,#66);
#40=ORGANIZATION('DEFINITION_APPROVEDBY_ORG_ID',
'DEFINITION_APPROVEDBY_ORG_NAME','DEFINITION_APPROVEDBY_ORG_DESCR');
#41=ORGANIZATION('DEF_CREATOR_ORG_ID','DEF_CREATOR_ORG_NAME',
'DEF_CREATOR_ORG_DESCR');
#42=ORGANIZATION('APPROVEDBY_ORG_ID','APPROVEDBY_ORG_NAME',
'APPROVEDBY_ORG_DESCR');
#43=ORGANIZATION('SECURITY_APPROVEDBY_ORG_ID',
'SECURITY_APPROVEDBY_ORG_NAME','SECURITY_APPROVEDBY_ORG_DESCR');
#44=ORGANIZATION('CLASSOFFICER_ORG_ID','CLASSOFFICER_ORG_NAME',
'CLASSOFFICER_ORG_DESCR');
#45=ORGANIZATION('CREATOR_ORG_ID','CREATOR_ORG_NAME',
'CREATOR_ORG_DESCR');
#46=ORGANIZATION('SUPPLIER_ORG_ID','SUPPLIER_ORG_NAME',
'SUPPLIER_ORG_DESCR');
#47=ORGANIZATION('OWNER_ORG_ID','OWNER_ORG_NAME','OWNER_ORG_DESCR');
#48=PERSON('DEFINITION_approverID','DEFINITION_APPROVEDBY_LASTNAME',
'DEFINITION_APPROVEDBY_FIRSTNAME',$,$,$);
#49=PERSON('DEF_createrID','DEF_CREATOR_LASTNAME',
'DEF_CREATOR_FIRSTNAME',$,$,$);
#50=PERSON('approverID','APPROVEDBY_LASTNAME','APPROVEDBY_FIRSTNAME',$,
$,$);
#51=PERSON('SECURITY_approverID','SECURITY_LASTNAME',
'SECURITY_APPROVEDBY_FIRSTNAME',$,$,$);
#52=PERSON('classifierID','CLASSOFFICER_LASTNAME',
'CLASSOFFICER_FIRSTNAME',$,$,$);
#53=PERSON('createrID','CREATOR_LASTNAME','CREATOR_FIRSTNAME',$,$,$);
#54=PERSON('supplierID','SUPPLIER_LASTNAME','SUPPLIER_FIRSTNAME',$,$,$);
#55=PERSON('ownerID','OWNER_LASTNAME','OWNER_FIRSTNAME',$,$,$);
#56=PERSON_AND_ORGANIZATION(#48,#40);
#57=PERSON_AND_ORGANIZATION(#49,#41);
#58=PERSON_AND_ORGANIZATION(#50,#42);
#59=PERSON_AND_ORGANIZATION(#51,#43);
#60=PERSON_AND_ORGANIZATION(#52,#44);
#61=PERSON_AND_ORGANIZATION(#53,#45);
#62=PERSON_AND_ORGANIZATION(#54,#46);
#63=PERSON_AND_ORGANIZATION(#55,#47);
#64=APPROVAL_ROLE('definition_approval');
#65=APPROVAL_ROLE('version_approval');
#66=APPROVAL_ROLE('security_approval');
#67=APPROVAL_DATE_TIME(#85,#93);
#68=APPROVAL_DATE_TIME(#87,#94);
#69=APPROVAL_DATE_TIME(#88,#95);
#70=COORDINATED_UNIVERSAL_TIME_OFFSET(1,0,.AHEAD.);
#71=COORDINATED_UNIVERSAL_TIME_OFFSET(1,0,.AHEAD.);
#72=COORDINATED_UNIVERSAL_TIME_OFFSET(1,0,.AHEAD.);
#73=COORDINATED_UNIVERSAL_TIME_OFFSET(1,0,.AHEAD.);
#74=COORDINATED_UNIVERSAL_TIME_OFFSET(1,0,.AHEAD.);
#75=LOCAL_TIME(13,48,20.,#70);
#76=LOCAL_TIME(13,48,20.,#71);
#77=LOCAL_TIME(13,48,20.,#72);
#78=LOCAL_TIME(13,48,20.,#73);
#79=LOCAL_TIME(13,48,20.,#74);
#80=CALENDAR_DATE(2017,3,2);
#81=CALENDAR_DATE(2017,3,2);
#82=CALENDAR_DATE(2017,3,2);
#83=CALENDAR_DATE(2017,3,2);
#84=CALENDAR_DATE(2017,3,2);
#85=DATE_AND_TIME(#80,#75);
#86=DATE_AND_TIME(#81,#76);
#87=DATE_AND_TIME(#82,#77);
#88=DATE_AND_TIME(#83,#78);
#89=DATE_AND_TIME(#84,#79);
#90=APPROVAL_STATUS('not_yet_approved');
#91=APPROVAL_STATUS('not_yet_approved');
#92=APPROVAL_STATUS('not_yet_approved');
#93=APPROVAL(#90,'defintion approval');
#94=APPROVAL(#91,'version approval');
#95=APPROVAL(#92,'security approval');
#96=PRODUCT_DEFINITION('DefinitionID','DefinitionDesc',#97,#19);
#97=PRODUCT_DEFINITION_FORMATION_WITH_SPECIFIED_SOURCE(
'PRODUCT_VERSION_ID','PRODUCT_VERSION_DESCR',#98,.NOT_KNOWN.);
#98=PRODUCT('ID_1','Nav\X\EDja\X2\010D\X0\ mal\X\FD part 1','',(#10));
#99=(
LENGTH_UNIT()
NAMED_UNIT(*)
SI_UNIT(.CENTI.,.METRE.)
);
#100=(
NAMED_UNIT(*)
PLANE_ANGLE_UNIT()
SI_UNIT($,.RADIAN.)
);
#101=(
NAMED_UNIT(*)
SI_UNIT($,.STERADIAN.)
SOLID_ANGLE_UNIT()
);
#102=UNCERTAINTY_MEASURE_WITH_UNIT(LENGTH_MEASURE(1.E-6),#99,
'DISTANCE_ACCURACY_VALUE',
'Maximum model space distance between geometric entities at asserted c
onnectivities');
#103=(
GEOMETRIC_REPRESENTATION_CONTEXT(3)
GLOBAL_UNCERTAINTY_ASSIGNED_CONTEXT((#102))
GLOBAL_UNIT_ASSIGNED_CONTEXT((#101,#100,#99))
REPRESENTATION_CONTEXT('ID1','3D')
);
#104=PLANE('',#313);
#105=PLANE('',#317);
#106=PLANE('',#326);
#107=PLANE('',#332);
#108=PLANE('',#338);
#109=PLANE('',#342);
#110=PLANE('',#346);
#111=CYLINDRICAL_SURFACE('',#311,0.5);
#112=CYLINDRICAL_SURFACE('',#319,1.775);
#113=CYLINDRICAL_SURFACE('',#324,0.825);
#114=CYLINDRICAL_SURFACE('',#330,1.915);
#115=CYLINDRICAL_SURFACE('',#336,3.925);
#116=CYLINDRICAL_SURFACE('',#345,3.5);
#117=VERTEX_POINT('',#349);
#118=VERTEX_POINT('',#351);
#119=VERTEX_POINT('',#354);
#120=VERTEX_POINT('',#358);
#121=VERTEX_POINT('',#360);
#122=VERTEX_POINT('',#363);
#123=VERTEX_POINT('',#366);
#124=VERTEX_POINT('',#369);
#125=VERTEX_POINT('',#371);
#126=VERTEX_POINT('',#374);
#127=VERTEX_POINT('',#378);
#128=VERTEX_POINT('',#380);
#129=VERTEX_POINT('',#383);
#130=VERTEX_POINT('',#387);
#131=VERTEX_POINT('',#389);
#132=VERTEX_POINT('',#392);
#133=VERTEX_POINT('',#395);
#134=VERTEX_POINT('',#398);
#135=VERTEX_POINT('',#402);
#136=CIRCLE('',#309,0.45);
#137=CIRCLE('',#310,0.5);
#138=CIRCLE('',#312,0.5);
#139=CIRCLE('',#315,1.775);
#140=CIRCLE('',#316,1.825);
#141=CIRCLE('',#318,3.45);
#142=CIRCLE('',#320,1.775);
#143=CIRCLE('',#322,0.775);
#144=CIRCLE('',#323,0.825);
#145=CIRCLE('',#325,0.825);
#146=CIRCLE('',#328,1.865);
#147=CIRCLE('',#329,1.915);
#148=CIRCLE('',#331,1.915);
#149=CIRCLE('',#334,3.875);
#150=CIRCLE('',#335,3.925);
#151=CIRCLE('',#337,3.925);
#152=CIRCLE('',#339,3.5);
#153=CIRCLE('',#341,3.875);
#154=CIRCLE('',#344,3.5);
#155=EDGE_CURVE('',#117,#117,#136,.T.);
#156=EDGE_CURVE('',#118,#118,#137,.T.);
#157=EDGE_CURVE('',#119,#119,#138,.T.);
#158=EDGE_CURVE('',#120,#120,#139,.T.);
#159=EDGE_CURVE('',#121,#121,#140,.T.);
#160=EDGE_CURVE('',#122,#122,#141,.T.);
#161=EDGE_CURVE('',#123,#123,#142,.T.);
#162=EDGE_CURVE('',#124,#124,#143,.T.);
#163=EDGE_CURVE('',#125,#125,#144,.T.);
#164=EDGE_CURVE('',#126,#126,#145,.T.);
#165=EDGE_CURVE('',#127,#127,#146,.T.);
#166=EDGE_CURVE('',#128,#128,#147,.T.);
#167=EDGE_CURVE('',#129,#129,#148,.T.);
#168=EDGE_CURVE('',#130,#130,#149,.T.);
#169=EDGE_CURVE('',#131,#131,#150,.T.);
#170=EDGE_CURVE('',#132,#132,#151,.T.);
#171=EDGE_CURVE('',#133,#133,#152,.T.);
#172=EDGE_CURVE('',#134,#134,#153,.T.);
#173=EDGE_CURVE('',#135,#135,#154,.T.);
#174=ORIENTED_EDGE('',*,*,#155,.T.);
#175=ORIENTED_EDGE('',*,*,#156,.T.);
#176=ORIENTED_EDGE('',*,*,#157,.F.);
#177=ORIENTED_EDGE('',*,*,#156,.F.);
#178=ORIENTED_EDGE('',*,*,#155,.F.);
#179=ORIENTED_EDGE('',*,*,#158,.T.);
#180=ORIENTED_EDGE('',*,*,#159,.T.);
#181=ORIENTED_EDGE('',*,*,#160,.F.);
#182=ORIENTED_EDGE('',*,*,#159,.F.);
#183=ORIENTED_EDGE('',*,*,#161,.F.);
#184=ORIENTED_EDGE('',*,*,#158,.F.);
#185=ORIENTED_EDGE('',*,*,#162,.T.);
#186=ORIENTED_EDGE('',*,*,#163,.T.);
#187=ORIENTED_EDGE('',*,*,#164,.F.);
#188=ORIENTED_EDGE('',*,*,#163,.F.);
#189=ORIENTED_EDGE('',*,*,#157,.T.);
#190=ORIENTED_EDGE('',*,*,#162,.F.);
#191=ORIENTED_EDGE('',*,*,#165,.T.);
#192=ORIENTED_EDGE('',*,*,#166,.T.);
#193=ORIENTED_EDGE('',*,*,#167,.F.);
#194=ORIENTED_EDGE('',*,*,#166,.F.);
#195=ORIENTED_EDGE('',*,*,#164,.T.);
#196=ORIENTED_EDGE('',*,*,#165,.F.);
#197=ORIENTED_EDGE('',*,*,#168,.T.);
#198=ORIENTED_EDGE('',*,*,#169,.T.);
#199=ORIENTED_EDGE('',*,*,#170,.F.);
#200=ORIENTED_EDGE('',*,*,#169,.F.);
#201=ORIENTED_EDGE('',*,*,#171,.F.);
#202=ORIENTED_EDGE('',*,*,#168,.F.);
#203=ORIENTED_EDGE('',*,*,#172,.T.);
#204=ORIENTED_EDGE('',*,*,#170,.T.);
#205=ORIENTED_EDGE('',*,*,#167,.T.);
#206=ORIENTED_EDGE('',*,*,#172,.F.);
#207=ORIENTED_EDGE('',*,*,#160,.T.);
#208=ORIENTED_EDGE('',*,*,#173,.T.);
#209=ORIENTED_EDGE('',*,*,#171,.T.);
#210=ORIENTED_EDGE('',*,*,#173,.F.);
#211=ORIENTED_EDGE('',*,*,#161,.T.);
#212=EDGE_LOOP('',(#174));
#213=EDGE_LOOP('',(#175));
#214=EDGE_LOOP('',(#176));
#215=EDGE_LOOP('',(#177));
#216=EDGE_LOOP('',(#178));
#217=EDGE_LOOP('',(#179));
#218=EDGE_LOOP('',(#180));
#219=EDGE_LOOP('',(#181));
#220=EDGE_LOOP('',(#182));
#221=EDGE_LOOP('',(#183));
#222=EDGE_LOOP('',(#184));
#223=EDGE_LOOP('',(#185));
#224=EDGE_LOOP('',(#186));
#225=EDGE_LOOP('',(#187));
#226=EDGE_LOOP('',(#188));
#227=EDGE_LOOP('',(#189));
#228=EDGE_LOOP('',(#190));
#229=EDGE_LOOP('',(#191));
#230=EDGE_LOOP('',(#192));
#231=EDGE_LOOP('',(#193));
#232=EDGE_LOOP('',(#194));
#233=EDGE_LOOP('',(#195));
#234=EDGE_LOOP('',(#196));
#235=EDGE_LOOP('',(#197));
#236=EDGE_LOOP('',(#198));
#237=EDGE_LOOP('',(#199));
#238=EDGE_LOOP('',(#200));
#239=EDGE_LOOP('',(#201));
#240=EDGE_LOOP('',(#202));
#241=EDGE_LOOP('',(#203));
#242=EDGE_LOOP('',(#204));
#243=EDGE_LOOP('',(#205));
#244=EDGE_LOOP('',(#206));
#245=EDGE_LOOP('',(#207));
#246=EDGE_LOOP('',(#208));
#247=EDGE_LOOP('',(#209));
#248=EDGE_LOOP('',(#210));
#249=EDGE_LOOP('',(#211));
#250=FACE_BOUND('',#212,.T.);
#251=FACE_BOUND('',#213,.T.);
#252=FACE_BOUND('',#214,.T.);
#253=FACE_BOUND('',#215,.T.);
#254=FACE_BOUND('',#216,.T.);
#255=FACE_BOUND('',#217,.T.);
#256=FACE_BOUND('',#218,.T.);
#257=FACE_BOUND('',#219,.T.);
#258=FACE_BOUND('',#220,.T.);
#259=FACE_BOUND('',#221,.T.);
#260=FACE_BOUND('',#222,.T.);
#261=FACE_BOUND('',#223,.T.);
#262=FACE_BOUND('',#224,.T.);
#263=FACE_BOUND('',#225,.T.);
#264=FACE_BOUND('',#226,.T.);
#265=FACE_BOUND('',#227,.T.);
#266=FACE_BOUND('',#228,.T.);
#267=FACE_BOUND('',#229,.T.);
#268=FACE_BOUND('',#230,.T.);
#269=FACE_BOUND('',#231,.T.);
#270=FACE_BOUND('',#232,.T.);
#271=FACE_BOUND('',#233,.T.);
#272=FACE_BOUND('',#234,.T.);
#273=FACE_BOUND('',#235,.T.);
#274=FACE_BOUND('',#236,.T.);
#275=FACE_BOUND('',#237,.T.);
#276=FACE_BOUND('',#238,.T.);
#277=FACE_BOUND('',#239,.T.);
#278=FACE_BOUND('',#240,.T.);
#279=FACE_BOUND('',#241,.T.);
#280=FACE_BOUND('',#242,.T.);
#281=FACE_BOUND('',#243,.T.);
#282=FACE_BOUND('',#244,.T.);
#283=FACE_BOUND('',#245,.T.);
#284=FACE_BOUND('',#246,.T.);
#285=FACE_BOUND('',#247,.T.);
#286=FACE_BOUND('',#248,.T.);
#287=FACE_BOUND('',#249,.T.);
#288=ADVANCED_FACE('',(#250,#251),#476,.T.);
#289=ADVANCED_FACE('',(#252,#253),#111,.T.);
#290=ADVANCED_FACE('',(#254),#104,.T.);
#291=ADVANCED_FACE('',(#255,#256),#477,.F.);
#292=ADVANCED_FACE('',(#257,#258),#105,.F.);
#293=ADVANCED_FACE('',(#259,#260),#112,.F.);
#294=ADVANCED_FACE('',(#261,#262),#478,.T.);
#295=ADVANCED_FACE('',(#263,#264),#113,.T.);
#296=ADVANCED_FACE('',(#265,#266),#106,.T.);
#297=ADVANCED_FACE('',(#267,#268),#479,.T.);
#298=ADVANCED_FACE('',(#269,#270),#114,.T.);
#299=ADVANCED_FACE('',(#271,#272),#107,.T.);
#300=ADVANCED_FACE('',(#273,#274),#480,.T.);
#301=ADVANCED_FACE('',(#275,#276),#115,.T.);
#302=ADVANCED_FACE('',(#277,#278),#108,.F.);
#303=ADVANCED_FACE('',(#279,#280),#481,.T.);
#304=ADVANCED_FACE('',(#281,#282),#109,.T.);
#305=ADVANCED_FACE('',(#283,#284),#482,.T.);
#306=ADVANCED_FACE('',(#285,#286),#116,.T.);
#307=ADVANCED_FACE('',(#287),#110,.T.);
#308=AXIS2_PLACEMENT_3D('',#347,#405,#406);
#309=AXIS2_PLACEMENT_3D('',#348,#407,#408);
#310=AXIS2_PLACEMENT_3D('',#350,#409,#410);
#311=AXIS2_PLACEMENT_3D('',#352,#411,#412);
#312=AXIS2_PLACEMENT_3D('',#353,#413,#414);
#313=AXIS2_PLACEMENT_3D('',#355,#415,$);
#314=AXIS2_PLACEMENT_3D('',#356,#416,#417);
#315=AXIS2_PLACEMENT_3D('',#357,#418,#419);
#316=AXIS2_PLACEMENT_3D('',#359,#420,#421);
#317=AXIS2_PLACEMENT_3D('',#361,#422,$);
#318=AXIS2_PLACEMENT_3D('',#362,#423,#424);
#319=AXIS2_PLACEMENT_3D('',#364,#425,#426);
#320=AXIS2_PLACEMENT_3D('',#365,#427,#428);
#321=AXIS2_PLACEMENT_3D('',#367,#429,#430);
#322=AXIS2_PLACEMENT_3D('',#368,#431,#432);
#323=AXIS2_PLACEMENT_3D('',#370,#433,#434);
#324=AXIS2_PLACEMENT_3D('',#372,#435,#436);
#325=AXIS2_PLACEMENT_3D('',#373,#437,#438);
#326=AXIS2_PLACEMENT_3D('',#375,#439,$);
#327=AXIS2_PLACEMENT_3D('',#376,#440,#441);
#328=AXIS2_PLACEMENT_3D('',#377,#442,#443);
#329=AXIS2_PLACEMENT_3D('',#379,#444,#445);
#330=AXIS2_PLACEMENT_3D('',#381,#446,#447);
#331=AXIS2_PLACEMENT_3D('',#382,#448,#449);
#332=AXIS2_PLACEMENT_3D('',#384,#450,$);
#333=AXIS2_PLACEMENT_3D('',#385,#451,#452);
#334=AXIS2_PLACEMENT_3D('',#386,#453,#454);
#335=AXIS2_PLACEMENT_3D('',#388,#455,#456);
#336=AXIS2_PLACEMENT_3D('',#390,#457,#458);
#337=AXIS2_PLACEMENT_3D('',#391,#459,#460);
#338=AXIS2_PLACEMENT_3D('',#393,#461,$);
#339=AXIS2_PLACEMENT_3D('',#394,#462,#463);
#340=AXIS2_PLACEMENT_3D('',#396,#464,#465);
#341=AXIS2_PLACEMENT_3D('',#397,#466,#467);
#342=AXIS2_PLACEMENT_3D('',#399,#468,$);
#343=AXIS2_PLACEMENT_3D('',#400,#469,#470);
#344=AXIS2_PLACEMENT_3D('',#401,#471,#472);
#345=AXIS2_PLACEMENT_3D('',#403,#473,#474);
#346=AXIS2_PLACEMENT_3D('',#404,#475,$);
#347=CARTESIAN_POINT('',(0.,0.,13.1));
#348=CARTESIAN_POINT('',(0.,0.,13.1));
#349=CARTESIAN_POINT('',(0.45,-5.5107285922007E-17,13.1));
#350=CARTESIAN_POINT('',(0.,0.,13.05));
#351=CARTESIAN_POINT('',(0.5,6.12303176911189E-17,13.05));
#352=CARTESIAN_POINT('',(0.,0.,9.6));
#353=CARTESIAN_POINT('',(0.,0.,9.6));
#354=CARTESIAN_POINT('',(0.5,0.,9.6));
#355=CARTESIAN_POINT('',(0.,0.,13.1));
#356=CARTESIAN_POINT('',(0.,0.,0.));
#357=CARTESIAN_POINT('',(0.,0.,0.05));
#358=CARTESIAN_POINT('',(-1.775,-2.17367627803472E-16,0.05));
#359=CARTESIAN_POINT('',(0.,0.,0.));
#360=CARTESIAN_POINT('',(-1.825,2.23490659572584E-16,0.));
#361=CARTESIAN_POINT('',(0.,0.,0.));
#362=CARTESIAN_POINT('',(0.,0.,0.));
#363=CARTESIAN_POINT('',(3.45,4.2248919206872E-16,0.));
#364=CARTESIAN_POINT('',(0.,0.,0.));
#365=CARTESIAN_POINT('',(0.,0.,0.8));
#366=CARTESIAN_POINT('',(-1.775,0.,0.8));
#367=CARTESIAN_POINT('',(0.,0.,9.6));
#368=CARTESIAN_POINT('',(0.,0.,9.6));
#369=CARTESIAN_POINT('',(0.775,-9.49069924212342E-17,9.6));
#370=CARTESIAN_POINT('',(0.,0.,9.55));
#371=CARTESIAN_POINT('',(0.825,1.01030024190346E-16,9.55));
#372=CARTESIAN_POINT('',(0.,0.,2.7));
#373=CARTESIAN_POINT('',(0.,0.,2.7));
#374=CARTESIAN_POINT('',(0.825,0.,2.7));
#375=CARTESIAN_POINT('',(0.,0.,9.6));
#376=CARTESIAN_POINT('',(0.,0.,2.7));
#377=CARTESIAN_POINT('',(0.,0.,2.7));
#378=CARTESIAN_POINT('',(1.865,-2.28389084987873E-16,2.7));
#379=CARTESIAN_POINT('',(0.,0.,2.65));
#380=CARTESIAN_POINT('',(1.915,2.34512116756985E-16,2.65));
#381=CARTESIAN_POINT('',(0.,0.,1.9));
#382=CARTESIAN_POINT('',(0.,0.,1.9));
#383=CARTESIAN_POINT('',(1.915,0.,1.9));
#384=CARTESIAN_POINT('',(0.,0.,2.7));
#385=CARTESIAN_POINT('',(0.,0.,0.8));
#386=CARTESIAN_POINT('',(0.,0.,0.8));
#387=CARTESIAN_POINT('',(3.875,4.74534962106171E-16,0.8));
#388=CARTESIAN_POINT('',(0.,0.,0.85));
#389=CARTESIAN_POINT('',(3.925,-4.80657993875283E-16,0.85));
#390=CARTESIAN_POINT('',(0.,0.,0.8));
#391=CARTESIAN_POINT('',(0.,0.,1.85));
#392=CARTESIAN_POINT('',(3.925,4.80657993875283E-16,1.85));
#393=CARTESIAN_POINT('',(0.,0.,0.8));
#394=CARTESIAN_POINT('',(0.,0.,0.8));
#395=CARTESIAN_POINT('',(3.5,0.,0.8));
#396=CARTESIAN_POINT('',(0.,0.,1.9));
#397=CARTESIAN_POINT('',(0.,0.,1.9));
#398=CARTESIAN_POINT('',(3.875,-4.74534962106171E-16,1.9));
#399=CARTESIAN_POINT('',(0.,0.,1.9));
#400=CARTESIAN_POINT('',(0.,0.,0.));
#401=CARTESIAN_POINT('',(0.,0.,0.0499999999999999));
#402=CARTESIAN_POINT('',(3.5,-4.28612223837832E-16,0.0499999999999999));
#403=CARTESIAN_POINT('',(0.,0.,0.));
#404=CARTESIAN_POINT('',(0.,0.,0.8));
#405=DIRECTION('',(0.,0.,-1.));
#406=DIRECTION('',(-0.45,0.,0.));
#407=DIRECTION('',(0.,0.,-1.));
#408=DIRECTION('',(-0.45,0.,0.));
#409=DIRECTION('',(0.,0.,1.));
#410=DIRECTION('',(-0.5,0.,0.));
#411=DIRECTION('',(0.,0.,1.));
#412=DIRECTION('',(0.5,0.,0.));
#413=DIRECTION('',(0.,0.,-1.));
#414=DIRECTION('',(0.5,0.,0.));
#415=DIRECTION('',(0.,0.,1.));
#416=DIRECTION('',(0.,0.,-1.));
#417=DIRECTION('',(1.825,0.,0.));
#418=DIRECTION('',(0.,0.,1.));
#419=DIRECTION('',(1.775,0.,0.));
#420=DIRECTION('',(0.,0.,-1.));
#421=DIRECTION('',(1.825,0.,0.));
#422=DIRECTION('',(0.,0.,1.));
#423=DIRECTION('',(0.,0.,1.));
#424=DIRECTION('',(-3.45,0.,0.));
#425=DIRECTION('',(0.,0.,1.));
#426=DIRECTION('',(-1.775,0.,0.));
#427=DIRECTION('',(0.,0.,-1.));
#428=DIRECTION('',(-1.775,0.,0.));
#429=DIRECTION('',(0.,0.,-1.));
#430=DIRECTION('',(-0.775,0.,0.));
#431=DIRECTION('',(0.,0.,-1.));
#432=DIRECTION('',(-0.775,0.,0.));
#433=DIRECTION('',(0.,0.,1.));
#434=DIRECTION('',(-0.825,0.,0.));
#435=DIRECTION('',(0.,0.,1.));
#436=DIRECTION('',(0.825,0.,0.));
#437=DIRECTION('',(0.,0.,-1.));
#438=DIRECTION('',(0.825,0.,0.));
#439=DIRECTION('',(0.,0.,1.));
#440=DIRECTION('',(0.,0.,-1.));
#441=DIRECTION('',(-1.865,0.,0.));
#442=DIRECTION('',(0.,0.,-1.));
#443=DIRECTION('',(-1.865,0.,0.));
#444=DIRECTION('',(0.,0.,1.));
#445=DIRECTION('',(-1.915,0.,0.));
#446=DIRECTION('',(0.,0.,1.));
#447=DIRECTION('',(1.915,0.,0.));
#448=DIRECTION('',(0.,0.,-1.));
#449=DIRECTION('',(1.915,0.,0.));
#450=DIRECTION('',(0.,0.,1.));
#451=DIRECTION('',(0.,0.,1.));
#452=DIRECTION('',(-3.875,0.,0.));
#453=DIRECTION('',(0.,0.,1.));
#454=DIRECTION('',(-3.875,0.,0.));
#455=DIRECTION('',(0.,0.,-1.));
#456=DIRECTION('',(-3.925,0.,0.));
#457=DIRECTION('',(0.,0.,1.));
#458=DIRECTION('',(3.925,0.,0.));
#459=DIRECTION('',(0.,0.,1.));
#460=DIRECTION('',(-3.925,0.,0.));
#461=DIRECTION('',(0.,0.,1.));
#462=DIRECTION('',(0.,0.,-1.));
#463=DIRECTION('',(3.5,0.,0.));
#464=DIRECTION('',(0.,0.,-1.));
#465=DIRECTION('',(-3.875,0.,0.));
#466=DIRECTION('',(0.,0.,-1.));
#467=DIRECTION('',(-3.875,0.,0.));
#468=DIRECTION('',(0.,0.,1.));
#469=DIRECTION('',(0.,0.,1.));
#470=DIRECTION('',(-3.45,0.,0.));
#471=DIRECTION('',(0.,0.,-1.));
#472=DIRECTION('',(-3.5,0.,0.));
#473=DIRECTION('',(0.,0.,1.));
#474=DIRECTION('',(3.5,0.,0.));
#475=DIRECTION('',(0.,0.,-1.));
#476=CONICAL_SURFACE('',#308,0.45,0.785398163397448);
#477=CONICAL_SURFACE('',#314,1.825,0.785398163397448);
#478=CONICAL_SURFACE('',#321,0.775,0.785398163397448);
#479=CONICAL_SURFACE('',#327,1.865,0.785398163397448);
#480=CONICAL_SURFACE('',#333,3.875,0.785398163397448);
#481=CONICAL_SURFACE('',#340,3.875,0.785398163397448);
#482=CONICAL_SURFACE('',#343,3.45,0.785398163397448);
#483=CLOSED_SHELL('',(#288,#289,#290,#291,#292,#293,#294,#295,#296,#297,
#298,#299,#300,#301,#302,#303,#304,#305,#306,#307));
#484=MANIFOLD_SOLID_BREP('',#483);
#485=ADVANCED_BREP_SHAPE_REPRESENTATION('',(#484),#103);
ENDSEC;
END-ISO-10303-21;
