ISO-10303-21;
HEADER;
FILE_DESCRIPTION (( 'STEP AP203' ),
    '1' );
FILE_NAME ('454008~0.STEP',
    '2023-05-12T09:04:53',
    ( '' ),
    ( '' ),
    'SwSTEP 2.0',
    'SolidWorks 2016',
    '' );
FILE_SCHEMA (( 'CONFIG_CONTROL_DESIGN' ));
ENDSEC;

DATA;
#1 = DIRECTION ( 'NONE',  ( -0.0000000000000000000, -0.0000000000000000000, 1.000000000000000000 ) ) ;
#2 = AXIS2_PLACEMENT_3D ( 'NONE', #59, #131, #61 ) ;
#3 = FACE_BOUND ( 'NONE', #134, .T. ) ;
#4 = ORIENTED_EDGE ( 'NONE', *, *, #75, .F. ) ;
#5 = APPROVAL_STATUS ( 'not_yet_approved' ) ;
#6 = ORIENTED_EDGE ( 'NONE', *, *, #75, .T. ) ;
#7 = CARTESIAN_POINT ( 'NONE',  ( 0.0000000000000000000, 0.0000000000000000000, 0.0000000000000000000 ) ) ;
#8 = AXIS2_PLACEMENT_3D ( 'NONE', #162, #98, #182 ) ;
#9 = LINE ( 'NONE', #112, #283 ) ;
#10 = CONICAL_SURFACE ( 'NONE', #2, 6.200000000000001100, 0.7853981633974482800 ) ;
#11 = LINE ( 'NONE', #289, #87 ) ;
#12 = LOCAL_TIME ( 11, 4, 53.00000000000000000, #152 ) ;
#13 = AXIS2_PLACEMENT_3D ( 'NONE', #195, #245, #56 ) ;
#14 = DIRECTION ( 'NONE',  ( 1.000000000000000000, 0.0000000000000000000, 0.0000000000000000000 ) ) ;
#15 = CARTESIAN_POINT ( 'NONE',  ( 0.0000000000000000000, 0.0000000000000000000, 4.000000000000000000 ) ) ;
#16 = DIRECTION ( 'NONE',  ( 0.7071067811865474600, 0.0000000000000000000, 0.7071067811865475700 ) ) ;
#17 = VERTEX_POINT ( 'NONE', #221 ) ;
#18 = EDGE_CURVE ( 'NONE', #269, #253, #268, .T. ) ;
#19 = CARTESIAN_POINT ( 'NONE',  ( 0.0000000000000000000, 0.0000000000000000000, 0.0000000000000000000 ) ) ;
#20 = PERSON_AND_ORGANIZATION ( #279, #31 ) ;
#21 = CALENDAR_DATE ( 2023, 12, 5 ) ;
#22 = EDGE_CURVE ( 'NONE', #124, #126, #193, .T. ) ;
#23 = FACE_OUTER_BOUND ( 'NONE', #57, .T. ) ;
#24 = DIRECTION ( 'NONE',  ( 1.000000000000000000, 0.0000000000000000000, 0.0000000000000000000 ) ) ;
#25 = AXIS2_PLACEMENT_3D ( 'NONE', #129, #225, #86 ) ;
#26 = DIRECTION ( 'NONE',  ( -1.000000000000000000, 0.0000000000000000000, 0.0000000000000000000 ) ) ;
#27 = ADVANCED_FACE ( 'NONE', ( #276 ), #238, .F. ) ;
#28 = EDGE_CURVE ( 'NONE', #126, #17, #233, .T. ) ;
#29 = EDGE_LOOP ( 'NONE', ( #62, #224 ) ) ;
#30 = APPROVAL_STATUS ( 'not_yet_approved' ) ;
#31 = ORGANIZATION ( 'UNSPECIFIED', 'UNSPECIFIED', '' ) ;
#32 = ORIENTED_EDGE ( 'NONE', *, *, #294, .T. ) ;
#33 = CC_DESIGN_APPROVAL ( #258, ( #215 ) ) ;
#34 = PERSON_AND_ORGANIZATION ( #279, #31 ) ;
#35 = DIRECTION ( 'NONE',  ( -0.0000000000000000000, -0.0000000000000000000, 1.000000000000000000 ) ) ;
#36 = ORIENTED_EDGE ( 'NONE', *, *, #284, .F. ) ;
#37 = SHAPE_DEFINITION_REPRESENTATION ( #88, #78 ) ;
#38 = FACE_BOUND ( 'NONE', #70, .T. ) ;
#39 = AXIS2_PLACEMENT_3D ( 'NONE', #119, #71, #24 ) ;
#40 = DIRECTION ( 'NONE',  ( 1.000000000000000000, 0.0000000000000000000, -0.0000000000000000000 ) ) ;
#41 = ORIENTED_EDGE ( 'NONE', *, *, #284, .T. ) ;
#42 = UNCERTAINTY_MEASURE_WITH_UNIT (LENGTH_MEASURE( 1.000000000000000100E-005 ), #209, 'distance_accuracy_value', 'NONE');
#43 = SECURITY_CLASSIFICATION_LEVEL ( 'unclassified' ) ;
#44 = CC_DESIGN_DATE_AND_TIME_ASSIGNMENT ( #102, #237, ( #171 ) ) ;
#45 = CC_DESIGN_DATE_AND_TIME_ASSIGNMENT ( #260, #169, ( #215 ) ) ;
#46 = PERSON_AND_ORGANIZATION ( #279, #31 ) ;
#47 = APPROVAL_STATUS ( 'not_yet_approved' ) ;
#48 = VERTEX_POINT ( 'NONE', #191 ) ;
#49 = ADVANCED_FACE ( 'NONE', ( #206 ), #110, .T. ) ;
#50 = ORIENTED_EDGE ( 'NONE', *, *, #22, .T. ) ;
#51 = EDGE_CURVE ( 'NONE', #246, #280, #264, .T. ) ;
#52 = CARTESIAN_POINT ( 'NONE',  ( 0.0000000000000000000, 0.0000000000000000000, 0.9999999999999974500 ) ) ;
#53 = EDGE_CURVE ( 'NONE', #124, #90, #170, .T. ) ;
#54 = COORDINATED_UNIVERSAL_TIME_OFFSET ( 1, 0, .AHEAD. ) ;
#55 = ORIENTED_EDGE ( 'NONE', *, *, #296, .F. ) ;
#56 = DIRECTION ( 'NONE',  ( -1.000000000000000000, 0.0000000000000000000, 0.0000000000000000000 ) ) ;
#57 = EDGE_LOOP ( 'NONE', ( #55, #241, #32, #122 ) ) ;
#58 = ORIENTED_EDGE ( 'NONE', *, *, #73, .T. ) ;
#59 = CARTESIAN_POINT ( 'NONE',  ( 0.0000000000000000000, 0.0000000000000000000, 4.000000000000000900 ) ) ;
#60 = DIRECTION ( 'NONE',  ( 0.0000000000000000000, 0.0000000000000000000, 1.000000000000000000 ) ) ;
#61 = DIRECTION ( 'NONE',  ( 1.000000000000000000, 0.0000000000000000000, 0.0000000000000000000 ) ) ;
#62 = ORIENTED_EDGE ( 'NONE', *, *, #28, .F. ) ;
#63 = DIRECTION ( 'NONE',  ( 0.0000000000000000000, 0.0000000000000000000, 1.000000000000000000 ) ) ;
#64 = APPROVAL_PERSON_ORGANIZATION ( #189, #103, #141 ) ;
#65 = CARTESIAN_POINT ( 'NONE',  ( 3.199999999999991300, 0.0000000000000000000, 4.000000000000000000 ) ) ;
#66 = PERSON_AND_ORGANIZATION_ROLE ( 'design_supplier' ) ;
#67 = DIRECTION ( 'NONE',  ( 1.000000000000000000, 0.0000000000000000000, 0.0000000000000000000 ) ) ;
#68 = ORIENTED_EDGE ( 'NONE', *, *, #53, .F. ) ;
#69 = AXIS2_PLACEMENT_3D ( 'NONE', #15, #299, #26 ) ;
#70 = EDGE_LOOP ( 'NONE', ( #107, #147 ) ) ;
#71 = DIRECTION ( 'NONE',  ( 0.0000000000000000000, 0.0000000000000000000, 1.000000000000000000 ) ) ;
#72 = VECTOR ( 'NONE', #121, 1000.000000000000000 ) ;
#73 = EDGE_CURVE ( 'NONE', #253, #48, #11, .T. ) ;
#74 = VECTOR ( 'NONE', #137, 1000.000000000000000 ) ;
#75 = EDGE_CURVE ( 'NONE', #253, #269, #204, .T. ) ;
#76 = FACE_OUTER_BOUND ( 'NONE', #101, .T. ) ;
#77 = COORDINATED_UNIVERSAL_TIME_OFFSET ( 1, 0, .AHEAD. ) ;
#78 = ADVANCED_BREP_SHAPE_REPRESENTATION ( '454008~0', ( #183, #265 ), #151 ) ;
#79 = ADVANCED_FACE ( 'NONE', ( #76 ), #10, .F. ) ;
#80 = EDGE_CURVE ( 'NONE', #269, #165, #164, .T. ) ;
#81 = PERSON_AND_ORGANIZATION_ROLE ( 'classification_officer' ) ;
#82 = PRODUCT_DEFINITION_FORMATION_WITH_SPECIFIED_SOURCE ( 'ANY', '', #261, .NOT_KNOWN. ) ;
#83 = CALENDAR_DATE ( 2023, 12, 5 ) ;
#84 = COORDINATED_UNIVERSAL_TIME_OFFSET ( 1, 0, .AHEAD. ) ;
#85 = FACE_OUTER_BOUND ( 'NONE', #29, .T. ) ;
#86 = DIRECTION ( 'NONE',  ( 1.000000000000000000, 0.0000000000000000000, 0.0000000000000000000 ) ) ;
#87 = VECTOR ( 'NONE', #291, 1000.000000000000000 ) ;
#88 = PRODUCT_DEFINITION_SHAPE ( 'NONE', 'NONE',  #215 ) ;
#89 = ORIENTED_EDGE ( 'NONE', *, *, #108, .T. ) ;
#90 = VERTEX_POINT ( 'NONE', #138 ) ;
#91 = CC_DESIGN_PERSON_AND_ORGANIZATION_ASSIGNMENT ( #92, #105, ( #215 ) ) ;
#92 = PERSON_AND_ORGANIZATION ( #279, #31 ) ;
#93 = DIRECTION ( 'NONE',  ( -0.0000000000000000000, -0.0000000000000000000, 1.000000000000000000 ) ) ;
#94 = AXIS2_PLACEMENT_3D ( 'NONE', #285, #99, #140 ) ;
#95 = CARTESIAN_POINT ( 'NONE',  ( 0.0000000000000000000, 0.0000000000000000000, 0.0000000000000000000 ) ) ;
#96 = CARTESIAN_POINT ( 'NONE',  ( 0.0000000000000000000, 0.0000000000000000000, 4.000000000000000000 ) ) ;
#97 = ORIENTED_EDGE ( 'NONE', *, *, #53, .T. ) ;
#98 = DIRECTION ( 'NONE',  ( -0.0000000000000000000, -0.0000000000000000000, 1.000000000000000000 ) ) ;
#99 = DIRECTION ( 'NONE',  ( 0.0000000000000000000, 0.0000000000000000000, 1.000000000000000000 ) ) ;
#100 = VECTOR ( 'NONE', #16, 1000.000000000000000 ) ;
#101 = EDGE_LOOP ( 'NONE', ( #4, #58, #236, #104 ) ) ;
#102 = DATE_AND_TIME ( #231, #293 ) ;
#103 = APPROVAL ( #30, 'UNSPECIFIED' ) ;
#104 = ORIENTED_EDGE ( 'NONE', *, *, #80, .F. ) ;
#105 = PERSON_AND_ORGANIZATION_ROLE ( 'creator' ) ;
#106 = DATE_AND_TIME ( #128, #12 ) ;
#107 = ORIENTED_EDGE ( 'NONE', *, *, #217, .T. ) ;
#108 = EDGE_CURVE ( 'NONE', #280, #269, #214, .T. ) ;
#109 = APPROVAL_DATE_TIME ( #216, #258 ) ;
#110 = CYLINDRICAL_SURFACE ( 'NONE', #13, 15.00000000000000000 ) ;
#111 = DIRECTION ( 'NONE',  ( -0.0000000000000000000, -0.0000000000000000000, 1.000000000000000000 ) ) ;
#112 = CARTESIAN_POINT ( 'NONE',  ( 15.00000000000000000, 1.836970198721029600E-015, 4.000000000000000000 ) ) ;
#113 = CARTESIAN_POINT ( 'NONE',  ( 0.0000000000000000000, 0.0000000000000000000, 0.9999999999999974500 ) ) ;
#114 = CC_DESIGN_APPROVAL ( #103, ( #82 ) ) ;
#115 = DIRECTION ( 'NONE',  ( 1.000000000000000000, 0.0000000000000000000, 0.0000000000000000000 ) ) ;
#116 = APPROVAL_DATE_TIME ( #106, #212 ) ;
#117 = DIRECTION ( 'NONE',  ( 0.0000000000000000000, 0.0000000000000000000, 1.000000000000000000 ) ) ;
#118 = APPLICATION_PROTOCOL_DEFINITION ( 'international standard', 'config_control_design', 1994, #254 ) ;
#119 = CARTESIAN_POINT ( 'NONE',  ( 0.0000000000000000000, 0.0000000000000000000, 0.0000000000000000000 ) ) ;
#120 = AXIS2_PLACEMENT_3D ( 'NONE', #52, #223, #14 ) ;
#121 = DIRECTION ( 'NONE',  ( -0.0000000000000000000, -0.0000000000000000000, 1.000000000000000000 ) ) ;
#122 = ORIENTED_EDGE ( 'NONE', *, *, #22, .F. ) ;
#123 = LINE ( 'NONE', #232, #72 ) ;
#124 = VERTEX_POINT ( 'NONE', #154 ) ;
#125 = EDGE_CURVE ( 'NONE', #48, #165, #240, .T. ) ;
#126 = VERTEX_POINT ( 'NONE', #175 ) ;
#127 = CARTESIAN_POINT ( 'NONE',  ( 0.0000000000000000000, 0.0000000000000000000, 4.000000000000000000 ) ) ;
#128 = CALENDAR_DATE ( 2023, 12, 5 ) ;
#129 = CARTESIAN_POINT ( 'NONE',  ( 0.0000000000000000000, 0.0000000000000000000, 0.0000000000000000000 ) ) ;
#130 = ORIENTED_EDGE ( 'NONE', *, *, #217, .F. ) ;
#131 = DIRECTION ( 'NONE',  ( -0.0000000000000000000, -0.0000000000000000000, 1.000000000000000000 ) ) ;
#132 = AXIS2_PLACEMENT_3D ( 'NONE', #133, #63, #297 ) ;
#133 = CARTESIAN_POINT ( 'NONE',  ( 0.0000000000000000000, 0.0000000000000000000, 4.000000000000000000 ) ) ;
#134 = EDGE_LOOP ( 'NONE', ( #161, #247 ) ) ;
#135 = DIRECTION ( 'NONE',  ( 1.000000000000000000, 0.0000000000000000000, 0.0000000000000000000 ) ) ;
#136 = DATE_AND_TIME ( #83, #201 ) ;
#137 = DIRECTION ( 'NONE',  ( -0.0000000000000000000, -0.0000000000000000000, 1.000000000000000000 ) ) ;
#138 = CARTESIAN_POINT ( 'NONE',  ( 15.00000000000000000, 1.836970198721029600E-015, 4.000000000000000000 ) ) ;
#139 = AXIS2_PLACEMENT_3D ( 'NONE', #113, #177, #298 ) ;
#140 = DIRECTION ( 'NONE',  ( 1.000000000000000000, 0.0000000000000000000, 0.0000000000000000000 ) ) ;
#141 = APPROVAL_ROLE ( '' ) ;
#142 = APPLICATION_CONTEXT ( 'configuration controlled 3d designs of mechanical parts and assemblies' ) ;
#143 = ADVANCED_FACE ( 'NONE', ( #256 ), #266, .F. ) ;
#144 = PERSON_AND_ORGANIZATION ( #279, #31 ) ;
#145 = ORIENTED_EDGE ( 'NONE', *, *, #73, .F. ) ;
#146 = EDGE_LOOP ( 'NONE', ( #194, #68, #50, #250 ) ) ;
#147 = ORIENTED_EDGE ( 'NONE', *, *, #51, .T. ) ;
#148 = CIRCLE ( 'NONE', #94, 15.00000000000000000 ) ;
#149 = LOCAL_TIME ( 11, 4, 53.00000000000000000, #54 ) ;
#150 = CC_DESIGN_APPROVAL ( #212, ( #171 ) ) ;
#151 =( GEOMETRIC_REPRESENTATION_CONTEXT ( 3 ) GLOBAL_UNCERTAINTY_ASSIGNED_CONTEXT ( ( #42 ) ) GLOBAL_UNIT_ASSIGNED_CONTEXT ( ( #209, #277, #186 ) ) REPRESENTATION_CONTEXT ( 'NONE', 'WORKASPACE' ) );
#152 = COORDINATED_UNIVERSAL_TIME_OFFSET ( 1, 0, .AHEAD. ) ;
#153 = AXIS2_PLACEMENT_3D ( 'NONE', #203, #1, #229 ) ;
#154 = CARTESIAN_POINT ( 'NONE',  ( -15.00000000000000000, 0.0000000000000000000, 4.000000000000000000 ) ) ;
#155 = CONICAL_SURFACE ( 'NONE', #185, 6.200000000000001100, 0.7853981633974482800 ) ;
#156 = DIRECTION ( 'NONE',  ( 1.000000000000000000, 0.0000000000000000000, 0.0000000000000000000 ) ) ;
#157 = APPROVAL_PERSON_ORGANIZATION ( #211, #258, #163 ) ;
#158 = CC_DESIGN_PERSON_AND_ORGANIZATION_ASSIGNMENT ( #20, #160, ( #261 ) ) ;
#159 = ORIENTED_EDGE ( 'NONE', *, *, #296, .T. ) ;
#160 = PERSON_AND_ORGANIZATION_ROLE ( 'design_owner' ) ;
#161 = ORIENTED_EDGE ( 'NONE', *, *, #288, .F. ) ;
#162 = CARTESIAN_POINT ( 'NONE',  ( 0.0000000000000000000, 0.0000000000000000000, 4.000000000000000900 ) ) ;
#163 = APPROVAL_ROLE ( '' ) ;
#164 = LINE ( 'NONE', #180, #100 ) ;
#165 = VERTEX_POINT ( 'NONE', #275 ) ;
#166 = EDGE_LOOP ( 'NONE', ( #97, #159 ) ) ;
#167 = AXIS2_PLACEMENT_3D ( 'NONE', #95, #60, #40 ) ;
#168 = EDGE_LOOP ( 'NONE', ( #145, #179, #188, #286 ) ) ;
#169 = DATE_TIME_ROLE ( 'creation_date' ) ;
#170 = CIRCLE ( 'NONE', #132, 15.00000000000000000 ) ;
#171 = SECURITY_CLASSIFICATION ( '', '', #43 ) ;
#172 = CC_DESIGN_PERSON_AND_ORGANIZATION_ASSIGNMENT ( #46, #213, ( #82 ) ) ;
#173 = ORIENTED_EDGE ( 'NONE', *, *, #51, .F. ) ;
#174 = DIRECTION ( 'NONE',  ( -0.0000000000000000000, -0.0000000000000000000, -1.000000000000000000 ) ) ;
#175 = CARTESIAN_POINT ( 'NONE',  ( -15.00000000000000000, 0.0000000000000000000, 0.0000000000000000000 ) ) ;
#176 = AXIS2_PLACEMENT_3D ( 'NONE', #270, #230, #227 ) ;
#177 = DIRECTION ( 'NONE',  ( -0.0000000000000000000, -0.0000000000000000000, 1.000000000000000000 ) ) ;
#178 = VECTOR ( 'NONE', #243, 1000.000000000000000 ) ;
#179 = ORIENTED_EDGE ( 'NONE', *, *, #18, .F. ) ;
#180 = CARTESIAN_POINT ( 'NONE',  ( 6.200000000000001100, 0.0000000000000000000, 4.000000000000000900 ) ) ;
#181 = AXIS2_PLACEMENT_3D ( 'NONE', #96, #93, #135 ) ;
#182 = DIRECTION ( 'NONE',  ( 1.000000000000000000, 0.0000000000000000000, 0.0000000000000000000 ) ) ;
#183 = MANIFOLD_SOLID_BREP ( 'Formsenkung für M6 Linsensenkschraube mit Schlitz1', #207 ) ;
#184 = PRODUCT_RELATED_PRODUCT_CATEGORY ( 'detail', '', ( #261 ) ) ;
#185 = AXIS2_PLACEMENT_3D ( 'NONE', #251, #111, #115 ) ;
#186 =( NAMED_UNIT ( * ) SI_UNIT ( $, .STERADIAN. ) SOLID_ANGLE_UNIT ( ) );
#187 = ADVANCED_FACE ( 'NONE', ( #38, #85 ), #198, .F. ) ;
#188 = ORIENTED_EDGE ( 'NONE', *, *, #80, .T. ) ;
#189 = PERSON_AND_ORGANIZATION ( #279, #31 ) ;
#190 = COORDINATED_UNIVERSAL_TIME_OFFSET ( 1, 0, .AHEAD. ) ;
#191 = CARTESIAN_POINT ( 'NONE',  ( -6.200000000000001100, 7.592810154713590800E-016, 4.000000000000000900 ) ) ;
#192 = AXIS2_PLACEMENT_3D ( 'NONE', #19, #249, #252 ) ;
#193 = LINE ( 'NONE', #226, #178 ) ;
#194 = ORIENTED_EDGE ( 'NONE', *, *, #196, .F. ) ;
#195 = CARTESIAN_POINT ( 'NONE',  ( 0.0000000000000000000, 0.0000000000000000000, 4.000000000000000000 ) ) ;
#196 = EDGE_CURVE ( 'NONE', #90, #17, #9, .T. ) ;
#197 = PLANE ( 'NONE',  #176 ) ;
#198 = PLANE ( 'NONE',  #167 ) ;
#199 = EDGE_LOOP ( 'NONE', ( #173, #41, #6, #290 ) ) ;
#200 = CARTESIAN_POINT ( 'NONE',  ( -3.199999999999997100, 3.918869757271526500E-016, 0.9999999999999974500 ) ) ;
#201 = LOCAL_TIME ( 11, 4, 53.00000000000000000, #190 ) ;
#202 = CARTESIAN_POINT ( 'NONE',  ( 3.199999999999997100, 0.0000000000000000000, 0.9999999999999974500 ) ) ;
#203 = CARTESIAN_POINT ( 'NONE',  ( 0.0000000000000000000, 0.0000000000000000000, 4.000000000000000900 ) ) ;
#204 = CIRCLE ( 'NONE', #139, 3.199999999999997100 ) ;
#205 = APPLICATION_PROTOCOL_DEFINITION ( 'international standard', 'config_control_design', 1994, #142 ) ;
#206 = FACE_OUTER_BOUND ( 'NONE', #146, .T. ) ;
#207 = CLOSED_SHELL ( 'NONE', ( #79, #143, #282, #49, #257, #187, #27, #262 ) ) ;
#208 = EDGE_LOOP ( 'NONE', ( #36, #130, #89, #295 ) ) ;
#209 =( LENGTH_UNIT ( ) NAMED_UNIT ( * ) SI_UNIT ( .MILLI., .METRE. ) );
#210 = CIRCLE ( 'NONE', #39, 15.00000000000000000 ) ;
#211 = PERSON_AND_ORGANIZATION ( #279, #31 ) ;
#212 = APPROVAL ( #47, 'UNSPECIFIED' ) ;
#213 = PERSON_AND_ORGANIZATION_ROLE ( 'creator' ) ;
#214 = LINE ( 'NONE', #65, #74 ) ;
#215 = PRODUCT_DEFINITION ( 'UNKNOWN', '', #82, #242 ) ;
#216 = DATE_AND_TIME ( #244, #149 ) ;
#217 = EDGE_CURVE ( 'NONE', #280, #246, #222, .T. ) ;
#218 = CC_DESIGN_PERSON_AND_ORGANIZATION_ASSIGNMENT ( #259, #81, ( #171 ) ) ;
#219 = FACE_OUTER_BOUND ( 'NONE', #166, .T. ) ;
#220 = APPROVAL_DATE_TIME ( #136, #103 ) ;
#221 = CARTESIAN_POINT ( 'NONE',  ( 15.00000000000000000, 1.836970198721029600E-015, 0.0000000000000000000 ) ) ;
#222 = CIRCLE ( 'NONE', #192, 3.199999999999991300 ) ;
#223 = DIRECTION ( 'NONE',  ( -0.0000000000000000000, -0.0000000000000000000, 1.000000000000000000 ) ) ;
#224 = ORIENTED_EDGE ( 'NONE', *, *, #294, .F. ) ;
#225 = DIRECTION ( 'NONE',  ( 0.0000000000000000000, 0.0000000000000000000, 1.000000000000000000 ) ) ;
#226 = CARTESIAN_POINT ( 'NONE',  ( -15.00000000000000000, 0.0000000000000000000, 4.000000000000000000 ) ) ;
#227 = DIRECTION ( 'NONE',  ( 1.000000000000000000, 0.0000000000000000000, -0.0000000000000000000 ) ) ;
#228 = AXIS2_PLACEMENT_3D ( 'NONE', #127, #35, #267 ) ;
#229 = DIRECTION ( 'NONE',  ( 1.000000000000000000, 0.0000000000000000000, 0.0000000000000000000 ) ) ;
#230 = DIRECTION ( 'NONE',  ( 0.0000000000000000000, 0.0000000000000000000, 1.000000000000000000 ) ) ;
#231 = CALENDAR_DATE ( 2023, 12, 5 ) ;
#232 = CARTESIAN_POINT ( 'NONE',  ( -3.199999999999991300, 3.918869757271519600E-016, 4.000000000000000000 ) ) ;
#233 = CIRCLE ( 'NONE', #25, 15.00000000000000000 ) ;
#234 = CC_DESIGN_PERSON_AND_ORGANIZATION_ASSIGNMENT ( #144, #66, ( #82 ) ) ;
#235 = AXIS2_PLACEMENT_3D ( 'NONE', #274, #271, #156 ) ;
#236 = ORIENTED_EDGE ( 'NONE', *, *, #125, .T. ) ;
#237 = DATE_TIME_ROLE ( 'classification_date' ) ;
#238 = CYLINDRICAL_SURFACE ( 'NONE', #228, 3.199999999999991300 ) ;
#239 = FACE_OUTER_BOUND ( 'NONE', #168, .T. ) ;
#240 = CIRCLE ( 'NONE', #153, 6.200000000000001100 ) ;
#241 = ORIENTED_EDGE ( 'NONE', *, *, #196, .T. ) ;
#242 = DESIGN_CONTEXT ( 'detailed design', #142, 'design' ) ;
#243 = DIRECTION ( 'NONE',  ( -0.0000000000000000000, -0.0000000000000000000, -1.000000000000000000 ) ) ;
#244 = CALENDAR_DATE ( 2023, 12, 5 ) ;
#245 = DIRECTION ( 'NONE',  ( -0.0000000000000000000, -0.0000000000000000000, -1.000000000000000000 ) ) ;
#246 = VERTEX_POINT ( 'NONE', #273 ) ;
#247 = ORIENTED_EDGE ( 'NONE', *, *, #125, .F. ) ;
#248 = CARTESIAN_POINT ( 'NONE',  ( 3.199999999999991300, 0.0000000000000000000, 0.0000000000000000000 ) ) ;
#249 = DIRECTION ( 'NONE',  ( 0.0000000000000000000, 0.0000000000000000000, 1.000000000000000000 ) ) ;
#250 = ORIENTED_EDGE ( 'NONE', *, *, #28, .T. ) ;
#251 = CARTESIAN_POINT ( 'NONE',  ( 0.0000000000000000000, 0.0000000000000000000, 4.000000000000000900 ) ) ;
#252 = DIRECTION ( 'NONE',  ( 1.000000000000000000, 0.0000000000000000000, 0.0000000000000000000 ) ) ;
#253 = VERTEX_POINT ( 'NONE', #200 ) ;
#254 = APPLICATION_CONTEXT ( 'configuration controlled 3d designs of mechanical parts and assemblies' ) ;
#255 = CC_DESIGN_SECURITY_CLASSIFICATION ( #171, ( #82 ) ) ;
#256 = FACE_OUTER_BOUND ( 'NONE', #199, .T. ) ;
#257 = ADVANCED_FACE ( 'NONE', ( #3, #219 ), #197, .T. ) ;
#258 = APPROVAL ( #5, 'UNSPECIFIED' ) ;
#259 = PERSON_AND_ORGANIZATION ( #279, #31 ) ;
#260 = DATE_AND_TIME ( #21, #281 ) ;
#261 = PRODUCT ( '454008~0', '454008~0', '', ( #278 ) ) ;
#262 = ADVANCED_FACE ( 'NONE', ( #239 ), #155, .F. ) ;
#263 = APPROVAL_ROLE ( '' ) ;
#264 = CIRCLE ( 'NONE', #235, 3.199999999999991300 ) ;
#265 = AXIS2_PLACEMENT_3D ( 'NONE', #7, #117, #67 ) ;
#266 = CYLINDRICAL_SURFACE ( 'NONE', #181, 3.199999999999991300 ) ;
#267 = DIRECTION ( 'NONE',  ( 1.000000000000000000, 0.0000000000000000000, 0.0000000000000000000 ) ) ;
#268 = CIRCLE ( 'NONE', #120, 3.199999999999997100 ) ;
#269 = VERTEX_POINT ( 'NONE', #202 ) ;
#270 = CARTESIAN_POINT ( 'NONE',  ( 0.0000000000000000000, 0.0000000000000000000, 4.000000000000000000 ) ) ;
#271 = DIRECTION ( 'NONE',  ( 0.0000000000000000000, 0.0000000000000000000, 1.000000000000000000 ) ) ;
#272 = APPROVAL_PERSON_ORGANIZATION ( #34, #212, #263 ) ;
#273 = CARTESIAN_POINT ( 'NONE',  ( -3.199999999999991300, 3.918869757271519600E-016, 0.0000000000000000000 ) ) ;
#274 = CARTESIAN_POINT ( 'NONE',  ( 0.0000000000000000000, 0.0000000000000000000, 0.0000000000000000000 ) ) ;
#275 = CARTESIAN_POINT ( 'NONE',  ( 6.200000000000001100, 0.0000000000000000000, 4.000000000000000900 ) ) ;
#276 = FACE_OUTER_BOUND ( 'NONE', #208, .T. ) ;
#277 =( NAMED_UNIT ( * ) PLANE_ANGLE_UNIT ( ) SI_UNIT ( $, .RADIAN. ) );
#278 = MECHANICAL_CONTEXT ( 'NONE', #254, 'mechanical' ) ;
#279 = PERSON ( 'UNSPECIFIED', 'UNSPECIFIED', 'UNSPECIFIED', ('UNSPECIFIED'), ('UNSPECIFIED'), ('UNSPECIFIED') ) ;
#280 = VERTEX_POINT ( 'NONE', #248 ) ;
#281 = LOCAL_TIME ( 11, 4, 53.00000000000000000, #84 ) ;
#282 = ADVANCED_FACE ( 'NONE', ( #23 ), #287, .T. ) ;
#283 = VECTOR ( 'NONE', #174, 1000.000000000000000 ) ;
#284 = EDGE_CURVE ( 'NONE', #246, #253, #123, .T. ) ;
#285 = CARTESIAN_POINT ( 'NONE',  ( 0.0000000000000000000, 0.0000000000000000000, 4.000000000000000000 ) ) ;
#286 = ORIENTED_EDGE ( 'NONE', *, *, #288, .T. ) ;
#287 = CYLINDRICAL_SURFACE ( 'NONE', #69, 15.00000000000000000 ) ;
#288 = EDGE_CURVE ( 'NONE', #165, #48, #292, .T. ) ;
#289 = CARTESIAN_POINT ( 'NONE',  ( -6.200000000000001100, 7.592810154713590800E-016, 4.000000000000000900 ) ) ;
#290 = ORIENTED_EDGE ( 'NONE', *, *, #108, .F. ) ;
#291 = DIRECTION ( 'NONE',  ( -0.7071067811865474600, 8.659560562354931600E-017, 0.7071067811865475700 ) ) ;
#292 = CIRCLE ( 'NONE', #8, 6.200000000000001100 ) ;
#293 = LOCAL_TIME ( 11, 4, 53.00000000000000000, #77 ) ;
#294 = EDGE_CURVE ( 'NONE', #17, #126, #210, .T. ) ;
#295 = ORIENTED_EDGE ( 'NONE', *, *, #18, .T. ) ;
#296 = EDGE_CURVE ( 'NONE', #90, #124, #148, .T. ) ;
#297 = DIRECTION ( 'NONE',  ( 1.000000000000000000, 0.0000000000000000000, 0.0000000000000000000 ) ) ;
#298 = DIRECTION ( 'NONE',  ( 1.000000000000000000, 0.0000000000000000000, 0.0000000000000000000 ) ) ;
#299 = DIRECTION ( 'NONE',  ( -0.0000000000000000000, -0.0000000000000000000, -1.000000000000000000 ) ) ;
ENDSEC;
END-ISO-10303-21;
