ISO-10303-21;
HEADER;
FILE_DESCRIPTION (( 'STEP AP203' ),
    '1' );
FILE_NAME ('450518~1.STEP',
    '2023-10-19T12:33:10',
    ( '' ),
    ( '' ),
    'SwSTEP 2.0',
    'SolidWorks 2016',
    '' );
FILE_SCHEMA (( 'CONFIG_CONTROL_DESIGN' ));
ENDSEC;

DATA;
#1 = PRODUCT_DEFINITION_FORMATION_WITH_SPECIFIED_SOURCE ( 'ANY', '', #170, .NOT_KNOWN. ) ;
#2 = CARTESIAN_POINT ( 'NONE',  ( -1.999999999999997800, 0.0000000000000000000, 0.0000000000000000000 ) ) ;
#3 = CARTESIAN_POINT ( 'NONE',  ( 0.0000000000000000000, 0.0000000000000000000, 0.0000000000000000000 ) ) ;
#4 = EDGE_LOOP ( 'NONE', ( #224, #169, #215, #140 ) ) ;
#5 = ORIENTED_EDGE ( 'NONE', *, *, #210, .F. ) ;
#6 = CARTESIAN_POINT ( 'NONE',  ( 0.0000000000000000000, 0.0000000000000000000, -1.000000000000000900 ) ) ;
#7 = DIRECTION ( 'NONE',  ( -1.000000000000000000, 0.0000000000000000000, 0.0000000000000000000 ) ) ;
#8 = FACE_OUTER_BOUND ( 'NONE', #4, .T. ) ;
#9 = APPROVAL_ROLE ( '' ) ;
#10 = APPROVAL_STATUS ( 'not_yet_approved' ) ;
#11 = PERSON_AND_ORGANIZATION ( #150, #208 ) ;
#12 = EDGE_CURVE ( 'NONE', #65, #237, #209, .T. ) ;
#13 = COORDINATED_UNIVERSAL_TIME_OFFSET ( 1, 0, .AHEAD. ) ;
#14 = CC_DESIGN_PERSON_AND_ORGANIZATION_ASSIGNMENT ( #241, #166, ( #1 ) ) ;
#15 = COORDINATED_UNIVERSAL_TIME_OFFSET ( 1, 0, .AHEAD. ) ;
#16 = EDGE_CURVE ( 'NONE', #133, #275, #167, .T. ) ;
#17 = EDGE_CURVE ( 'NONE', #275, #267, #41, .T. ) ;
#18 = DIRECTION ( 'NONE',  ( 1.000000000000000000, 0.0000000000000000000, -0.0000000000000000000 ) ) ;
#19 = LOCAL_TIME ( 14, 33, 10.00000000000000000, #192 ) ;
#20 = AXIS2_PLACEMENT_3D ( 'NONE', #6, #161, #28 ) ;
#21 = LOCAL_TIME ( 14, 33, 10.00000000000000000, #248 ) ;
#22 = DIRECTION ( 'NONE',  ( 0.0000000000000000000, 0.0000000000000000000, 1.000000000000000000 ) ) ;
#23 = FACE_OUTER_BOUND ( 'NONE', #257, .T. ) ;
#24 = CARTESIAN_POINT ( 'NONE',  ( 3.000000000000000400, 0.0000000000000000000, -120.0000000000000000 ) ) ;
#25 = ORIENTED_EDGE ( 'NONE', *, *, #96, .F. ) ;
#26 = DIRECTION ( 'NONE',  ( 0.0000000000000000000, 0.0000000000000000000, 1.000000000000000000 ) ) ;
#27 = SECURITY_CLASSIFICATION ( '', '', #58 ) ;
#28 = DIRECTION ( 'NONE',  ( 1.000000000000000000, 0.0000000000000000000, 0.0000000000000000000 ) ) ;
#29 = DIRECTION ( 'NONE',  ( 1.000000000000000000, 0.0000000000000000000, 0.0000000000000000000 ) ) ;
#30 = ADVANCED_FACE ( 'NONE', ( #158 ), #112, .T. ) ;
#31 = DATE_TIME_ROLE ( 'classification_date' ) ;
#32 = AXIS2_PLACEMENT_3D ( 'NONE', #46, #160, #118 ) ;
#33 = CARTESIAN_POINT ( 'NONE',  ( -3.000000000000000400, 3.673940397442060400E-016, -1.000000000000000900 ) ) ;
#34 = ORIENTED_EDGE ( 'NONE', *, *, #96, .T. ) ;
#35 = APPROVAL ( #10, 'UNSPECIFIED' ) ;
#36 = DATE_AND_TIME ( #165, #207 ) ;
#37 = PERSON_AND_ORGANIZATION ( #150, #208 ) ;
#38 = ADVANCED_FACE ( 'NONE', ( #105 ), #136, .T. ) ;
#39 = VECTOR ( 'NONE', #114, 999.9999999999998900 ) ;
#40 = CIRCLE ( 'NONE', #135, 3.000000000000000400 ) ;
#41 = LINE ( 'NONE', #234, #174 ) ;
#42 = ORIENTED_EDGE ( 'NONE', *, *, #253, .T. ) ;
#43 = CC_DESIGN_DATE_AND_TIME_ASSIGNMENT ( #127, #31, ( #27 ) ) ;
#44 = CONICAL_SURFACE ( 'NONE', #216, 3.000000000000000400, 0.7853981633974409500 ) ;
#45 = AXIS2_PLACEMENT_3D ( 'NONE', #80, #221, #7 ) ;
#46 = CARTESIAN_POINT ( 'NONE',  ( 0.0000000000000000000, 0.0000000000000000000, -120.0000000000000000 ) ) ;
#47 = ORIENTED_EDGE ( 'NONE', *, *, #253, .F. ) ;
#48 = DIRECTION ( 'NONE',  ( 1.000000000000000000, 0.0000000000000000000, 0.0000000000000000000 ) ) ;
#49 = CC_DESIGN_PERSON_AND_ORGANIZATION_ASSIGNMENT ( #78, #121, ( #27 ) ) ;
#50 = CARTESIAN_POINT ( 'NONE',  ( 1.999999999999997800, 3.061616997868382200E-016, 0.0000000000000000000 ) ) ;
#51 = DIRECTION ( 'NONE',  ( 1.000000000000000000, 0.0000000000000000000, 0.0000000000000000000 ) ) ;
#52 = FACE_OUTER_BOUND ( 'NONE', #252, .T. ) ;
#53 = CARTESIAN_POINT ( 'NONE',  ( 0.0000000000000000000, 0.0000000000000000000, 0.0000000000000000000 ) ) ;
#54 = VERTEX_POINT ( 'NONE', #256 ) ;
#55 = DIRECTION ( 'NONE',  ( 1.000000000000000000, 0.0000000000000000000, 0.0000000000000000000 ) ) ;
#56 = AXIS2_PLACEMENT_3D ( 'NONE', #53, #219, #155 ) ;
#57 = CARTESIAN_POINT ( 'NONE',  ( 0.0000000000000000000, 0.0000000000000000000, -120.0000000000000000 ) ) ;
#58 = SECURITY_CLASSIFICATION_LEVEL ( 'unclassified' ) ;
#59 = CIRCLE ( 'NONE', #106, 3.000000000000000400 ) ;
#60 = VECTOR ( 'NONE', #177, 1000.000000000000100 ) ;
#61 = CC_DESIGN_APPROVAL ( #145, ( #27 ) ) ;
#62 = ORIENTED_EDGE ( 'NONE', *, *, #16, .T. ) ;
#63 = CC_DESIGN_PERSON_AND_ORGANIZATION_ASSIGNMENT ( #246, #203, ( #170 ) ) ;
#64 = DATE_AND_TIME ( #101, #21 ) ;
#65 = VERTEX_POINT ( 'NONE', #108 ) ;
#66 = ORIENTED_EDGE ( 'NONE', *, *, #210, .T. ) ;
#67 = EDGE_CURVE ( 'NONE', #65, #133, #230, .T. ) ;
#68 = CARTESIAN_POINT ( 'NONE',  ( -3.000000000000000400, 3.673940397442060400E-016, -118.9999999999999900 ) ) ;
#69 = PERSON_AND_ORGANIZATION ( #150, #208 ) ;
#70 = ORIENTED_EDGE ( 'NONE', *, *, #269, .T. ) ;
#71 = DIRECTION ( 'NONE',  ( -0.7071067811865482400, 0.0000000000000000000, -0.7071067811865469100 ) ) ;
#72 = APPROVAL_DATE_TIME ( #132, #35 ) ;
#73 = CARTESIAN_POINT ( 'NONE',  ( 0.0000000000000000000, 0.0000000000000000000, -120.0000000000000000 ) ) ;
#74 = DIRECTION ( 'NONE',  ( 1.000000000000000000, 0.0000000000000000000, -0.0000000000000000000 ) ) ;
#75 = AXIS2_PLACEMENT_3D ( 'NONE', #123, #100, #164 ) ;
#76 = CARTESIAN_POINT ( 'NONE',  ( 0.0000000000000000000, 0.0000000000000000000, -118.9999999999999900 ) ) ;
#77 = APPLICATION_PROTOCOL_DEFINITION ( 'international standard', 'config_control_design', 1994, #201 ) ;
#78 = PERSON_AND_ORGANIZATION ( #150, #208 ) ;
#79 = EDGE_CURVE ( 'NONE', #267, #54, #97, .T. ) ;
#80 = CARTESIAN_POINT ( 'NONE',  ( 0.0000000000000000000, 0.0000000000000000000, 0.0000000000000000000 ) ) ;
#81 = ORIENTED_EDGE ( 'NONE', *, *, #131, .F. ) ;
#82 = DIRECTION ( 'NONE',  ( 1.000000000000000000, 0.0000000000000000000, 0.0000000000000000000 ) ) ;
#83 = APPROVAL_PERSON_ORGANIZATION ( #37, #35, #243 ) ;
#84 = ORIENTED_EDGE ( 'NONE', *, *, #131, .T. ) ;
#85 = DIRECTION ( 'NONE',  ( 1.000000000000000000, 0.0000000000000000000, 0.0000000000000000000 ) ) ;
#86 = LINE ( 'NONE', #24, #156 ) ;
#87 = ORIENTED_EDGE ( 'NONE', *, *, #188, .F. ) ;
#88 = MANIFOLD_SOLID_BREP ( 'Fase1', #262 ) ;
#89 = APPROVAL_DATE_TIME ( #36, #145 ) ;
#90 = DIRECTION ( 'NONE',  ( 0.0000000000000000000, 0.0000000000000000000, 1.000000000000000000 ) ) ;
#91 = AXIS2_PLACEMENT_3D ( 'NONE', #239, #181, #258 ) ;
#92 = DIRECTION ( 'NONE',  ( 0.0000000000000000000, 0.0000000000000000000, 1.000000000000000000 ) ) ;
#93 = VECTOR ( 'NONE', #196, 1000.000000000000100 ) ;
#94 = DIRECTION ( 'NONE',  ( 1.000000000000000000, 0.0000000000000000000, 0.0000000000000000000 ) ) ;
#95 = CARTESIAN_POINT ( 'NONE',  ( 0.0000000000000000000, 0.0000000000000000000, -120.0000000000000000 ) ) ;
#96 = EDGE_CURVE ( 'NONE', #237, #275, #40, .T. ) ;
#97 = CIRCLE ( 'NONE', #147, 3.000000000000000400 ) ;
#98 = APPLICATION_PROTOCOL_DEFINITION ( 'international standard', 'config_control_design', 1994, #148 ) ;
#99 = CC_DESIGN_DATE_AND_TIME_ASSIGNMENT ( #138, #104, ( #265 ) ) ;
#100 = DIRECTION ( 'NONE',  ( 0.0000000000000000000, 0.0000000000000000000, 1.000000000000000000 ) ) ;
#101 = CALENDAR_DATE ( 2023, 19, 10 ) ;
#102 = EDGE_CURVE ( 'NONE', #231, #179, #254, .T. ) ;
#103 = SHAPE_DEFINITION_REPRESENTATION ( #187, #107 ) ;
#104 = DATE_TIME_ROLE ( 'creation_date' ) ;
#105 = FACE_OUTER_BOUND ( 'NONE', #130, .T. ) ;
#106 = AXIS2_PLACEMENT_3D ( 'NONE', #226, #264, #29 ) ;
#107 = ADVANCED_BREP_SHAPE_REPRESENTATION ( '450518~1', ( #88, #162 ), #206 ) ;
#108 = CARTESIAN_POINT ( 'NONE',  ( 2.000000000000000400, 0.0000000000000000000, -120.0000000000000000 ) ) ;
#109 = AXIS2_PLACEMENT_3D ( 'NONE', #213, #90, #85 ) ;
#110 = ORIENTED_EDGE ( 'NONE', *, *, #172, .T. ) ;
#111 = ORIENTED_EDGE ( 'NONE', *, *, #228, .T. ) ;
#112 = PLANE ( 'NONE',  #183 ) ;
#113 = COORDINATED_UNIVERSAL_TIME_OFFSET ( 1, 0, .AHEAD. ) ;
#114 = DIRECTION ( 'NONE',  ( 0.7071067811865482400, 8.659560562354941500E-017, -0.7071067811865469100 ) ) ;
#115 = CARTESIAN_POINT ( 'NONE',  ( 0.0000000000000000000, 0.0000000000000000000, -118.9999999999999900 ) ) ;
#116 = DIRECTION ( 'NONE',  ( 1.000000000000000000, 0.0000000000000000000, 0.0000000000000000000 ) ) ;
#117 = VECTOR ( 'NONE', #71, 999.9999999999998900 ) ;
#118 = DIRECTION ( 'NONE',  ( 1.000000000000000000, 0.0000000000000000000, 0.0000000000000000000 ) ) ;
#119 = ORIENTED_EDGE ( 'NONE', *, *, #12, .T. ) ;
#120 = DIRECTION ( 'NONE',  ( -0.0000000000000000000, -0.0000000000000000000, -1.000000000000000000 ) ) ;
#121 = PERSON_AND_ORGANIZATION_ROLE ( 'classification_officer' ) ;
#122 = ADVANCED_FACE ( 'NONE', ( #178 ), #199, .F. ) ;
#123 = CARTESIAN_POINT ( 'NONE',  ( 0.0000000000000000000, 0.0000000000000000000, 0.0000000000000000000 ) ) ;
#124 = AXIS2_PLACEMENT_3D ( 'NONE', #57, #120, #55 ) ;
#125 = ORIENTED_EDGE ( 'NONE', *, *, #16, .F. ) ;
#126 = ORIENTED_EDGE ( 'NONE', *, *, #102, .F. ) ;
#127 = DATE_AND_TIME ( #184, #233 ) ;
#128 = CARTESIAN_POINT ( 'NONE',  ( 3.000000000000000400, 0.0000000000000000000, -118.9999999999999900 ) ) ;
#129 = CC_DESIGN_PERSON_AND_ORGANIZATION_ASSIGNMENT ( #193, #263, ( #265 ) ) ;
#130 = EDGE_LOOP ( 'NONE', ( #34, #272, #218, #81 ) ) ;
#131 = EDGE_CURVE ( 'NONE', #237, #54, #86, .T. ) ;
#132 = DATE_AND_TIME ( #190, #236 ) ;
#133 = VERTEX_POINT ( 'NONE', #180 ) ;
#134 = CALENDAR_DATE ( 2023, 19, 10 ) ;
#135 = AXIS2_PLACEMENT_3D ( 'NONE', #115, #157, #94 ) ;
#136 = CYLINDRICAL_SURFACE ( 'NONE', #109, 3.000000000000000400 ) ;
#137 = DIRECTION ( 'NONE',  ( -0.0000000000000000000, -0.0000000000000000000, -1.000000000000000000 ) ) ;
#138 = DATE_AND_TIME ( #134, #19 ) ;
#139 = APPROVAL ( #143, 'UNSPECIFIED' ) ;
#140 = ORIENTED_EDGE ( 'NONE', *, *, #172, .F. ) ;
#141 = DIRECTION ( 'NONE',  ( 1.000000000000000000, 0.0000000000000000000, 0.0000000000000000000 ) ) ;
#142 = CARTESIAN_POINT ( 'NONE',  ( -1.999999999999997800, 0.0000000000000000000, 0.0000000000000000000 ) ) ;
#143 = APPROVAL_STATUS ( 'not_yet_approved' ) ;
#144 = APPROVAL_ROLE ( '' ) ;
#145 = APPROVAL ( #186, 'UNSPECIFIED' ) ;
#146 = ADVANCED_FACE ( 'NONE', ( #182 ), #223, .T. ) ;
#147 = AXIS2_PLACEMENT_3D ( 'NONE', #200, #235, #51 ) ;
#148 = APPLICATION_CONTEXT ( 'configuration controlled 3d designs of mechanical parts and assemblies' ) ;
#149 = EDGE_LOOP ( 'NONE', ( #195, #111, #84, #66 ) ) ;
#150 = PERSON ( 'UNSPECIFIED', 'UNSPECIFIED', 'UNSPECIFIED', ('UNSPECIFIED'), ('UNSPECIFIED'), ('UNSPECIFIED') ) ;
#151 = AXIS2_PLACEMENT_3D ( 'NONE', #95, #26, #74 ) ;
#152 = ADVANCED_FACE ( 'NONE', ( #249 ), #227, .T. ) ;
#153 = APPROVAL_PERSON_ORGANIZATION ( #69, #145, #144 ) ;
#154 = APPROVAL_PERSON_ORGANIZATION ( #194, #139, #9 ) ;
#155 = DIRECTION ( 'NONE',  ( -1.000000000000000000, 0.0000000000000000000, 0.0000000000000000000 ) ) ;
#156 = VECTOR ( 'NONE', #92, 1000.000000000000000 ) ;
#157 = DIRECTION ( 'NONE',  ( -0.0000000000000000000, -0.0000000000000000000, 1.000000000000000000 ) ) ;
#158 = FACE_OUTER_BOUND ( 'NONE', #191, .T. ) ;
#159 = CARTESIAN_POINT ( 'NONE',  ( 3.000000000000000400, 0.0000000000000000000, -118.9999999999999900 ) ) ;
#160 = DIRECTION ( 'NONE',  ( 0.0000000000000000000, 0.0000000000000000000, 1.000000000000000000 ) ) ;
#161 = DIRECTION ( 'NONE',  ( 0.0000000000000000000, 0.0000000000000000000, -1.000000000000000000 ) ) ;
#162 = AXIS2_PLACEMENT_3D ( 'NONE', #261, #189, #82 ) ;
#163 = EDGE_LOOP ( 'NONE', ( #255, #42 ) ) ;
#164 = DIRECTION ( 'NONE',  ( 1.000000000000000000, 0.0000000000000000000, 0.0000000000000000000 ) ) ;
#165 = CALENDAR_DATE ( 2023, 19, 10 ) ;
#166 = PERSON_AND_ORGANIZATION_ROLE ( 'design_supplier' ) ;
#167 = LINE ( 'NONE', #68, #60 ) ;
#168 = ORIENTED_EDGE ( 'NONE', *, *, #67, .F. ) ;
#169 = ORIENTED_EDGE ( 'NONE', *, *, #188, .T. ) ;
#170 = PRODUCT ( '450518~1', '450518~1', '', ( #220 ) ) ;
#171 = CIRCLE ( 'NONE', #124, 2.000000000000000400 ) ;
#172 = EDGE_CURVE ( 'NONE', #231, #267, #173, .T. ) ;
#173 = LINE ( 'NONE', #142, #117 ) ;
#174 = VECTOR ( 'NONE', #205, 1000.000000000000000 ) ;
#175 = CC_DESIGN_APPROVAL ( #139, ( #265 ) ) ;
#176 = DESIGN_CONTEXT ( 'detailed design', #148, 'design' ) ;
#177 = DIRECTION ( 'NONE',  ( -0.7071067811865422400, 8.659560562354868800E-017, 0.7071067811865526800 ) ) ;
#178 = FACE_OUTER_BOUND ( 'NONE', #163, .T. ) ;
#179 = VERTEX_POINT ( 'NONE', #50 ) ;
#180 = CARTESIAN_POINT ( 'NONE',  ( -2.000000000000000400, 3.061616997868383600E-016, -120.0000000000000000 ) ) ;
#181 = DIRECTION ( 'NONE',  ( -0.0000000000000000000, -0.0000000000000000000, 1.000000000000000000 ) ) ;
#182 = FACE_OUTER_BOUND ( 'NONE', #238, .T. ) ;
#183 = AXIS2_PLACEMENT_3D ( 'NONE', #229, #211, #18 ) ;
#184 = CALENDAR_DATE ( 2023, 19, 10 ) ;
#185 = CC_DESIGN_PERSON_AND_ORGANIZATION_ASSIGNMENT ( #11, #266, ( #1 ) ) ;
#186 = APPROVAL_STATUS ( 'not_yet_approved' ) ;
#187 = PRODUCT_DEFINITION_SHAPE ( 'NONE', 'NONE',  #265 ) ;
#188 = EDGE_CURVE ( 'NONE', #179, #54, #217, .T. ) ;
#189 = DIRECTION ( 'NONE',  ( 0.0000000000000000000, 0.0000000000000000000, 1.000000000000000000 ) ) ;
#190 = CALENDAR_DATE ( 2023, 19, 10 ) ;
#191 = EDGE_LOOP ( 'NONE', ( #204, #70 ) ) ;
#192 = COORDINATED_UNIVERSAL_TIME_OFFSET ( 1, 0, .AHEAD. ) ;
#193 = PERSON_AND_ORGANIZATION ( #150, #208 ) ;
#194 = PERSON_AND_ORGANIZATION ( #150, #208 ) ;
#195 = ORIENTED_EDGE ( 'NONE', *, *, #17, .F. ) ;
#196 = DIRECTION ( 'NONE',  ( 0.7071067811865422400, 0.0000000000000000000, 0.7071067811865526800 ) ) ;
#197 = AXIS2_PLACEMENT_3D ( 'NONE', #73, #137, #141 ) ;
#198 = DIRECTION ( 'NONE',  ( -0.0000000000000000000, -0.0000000000000000000, 1.000000000000000000 ) ) ;
#199 = PLANE ( 'NONE',  #151 ) ;
#200 = CARTESIAN_POINT ( 'NONE',  ( 0.0000000000000000000, 0.0000000000000000000, -1.000000000000000900 ) ) ;
#201 = APPLICATION_CONTEXT ( 'configuration controlled 3d designs of mechanical parts and assemblies' ) ;
#202 =( NAMED_UNIT ( * ) SI_UNIT ( $, .STERADIAN. ) SOLID_ANGLE_UNIT ( ) );
#203 = PERSON_AND_ORGANIZATION_ROLE ( 'design_owner' ) ;
#204 = ORIENTED_EDGE ( 'NONE', *, *, #102, .T. ) ;
#205 = DIRECTION ( 'NONE',  ( 0.0000000000000000000, 0.0000000000000000000, 1.000000000000000000 ) ) ;
#206 =( GEOMETRIC_REPRESENTATION_CONTEXT ( 3 ) GLOBAL_UNCERTAINTY_ASSIGNED_CONTEXT ( ( #271 ) ) GLOBAL_UNIT_ASSIGNED_CONTEXT ( ( #244, #268, #202 ) ) REPRESENTATION_CONTEXT ( 'NONE', 'WORKASPACE' ) );
#207 = LOCAL_TIME ( 14, 33, 10.00000000000000000, #113 ) ;
#208 = ORGANIZATION ( 'UNSPECIFIED', 'UNSPECIFIED', '' ) ;
#209 = LINE ( 'NONE', #128, #93 ) ;
#210 = EDGE_CURVE ( 'NONE', #54, #267, #274, .T. ) ;
#211 = DIRECTION ( 'NONE',  ( 0.0000000000000000000, 0.0000000000000000000, 1.000000000000000000 ) ) ;
#212 = ORIENTED_EDGE ( 'NONE', *, *, #12, .F. ) ;
#213 = CARTESIAN_POINT ( 'NONE',  ( 0.0000000000000000000, 0.0000000000000000000, -120.0000000000000000 ) ) ;
#214 = CARTESIAN_POINT ( 'NONE',  ( 1.999999999999997800, 2.449293598294703900E-016, 0.0000000000000000000 ) ) ;
#215 = ORIENTED_EDGE ( 'NONE', *, *, #79, .F. ) ;
#216 = AXIS2_PLACEMENT_3D ( 'NONE', #76, #198, #48 ) ;
#217 = LINE ( 'NONE', #214, #39 ) ;
#218 = ORIENTED_EDGE ( 'NONE', *, *, #79, .T. ) ;
#219 = DIRECTION ( 'NONE',  ( 0.0000000000000000000, 0.0000000000000000000, -1.000000000000000000 ) ) ;
#220 = MECHANICAL_CONTEXT ( 'NONE', #201, 'mechanical' ) ;
#221 = DIRECTION ( 'NONE',  ( 0.0000000000000000000, 0.0000000000000000000, -1.000000000000000000 ) ) ;
#222 = ADVANCED_FACE ( 'NONE', ( #8 ), #251, .T. ) ;
#223 = CONICAL_SURFACE ( 'NONE', #91, 3.000000000000000400, 0.7853981633974409500 ) ;
#224 = ORIENTED_EDGE ( 'NONE', *, *, #269, .F. ) ;
#225 = ADVANCED_FACE ( 'NONE', ( #23 ), #44, .T. ) ;
#226 = CARTESIAN_POINT ( 'NONE',  ( 0.0000000000000000000, 0.0000000000000000000, -118.9999999999999900 ) ) ;
#227 = CYLINDRICAL_SURFACE ( 'NONE', #32, 3.000000000000000400 ) ;
#228 = EDGE_CURVE ( 'NONE', #275, #237, #59, .T. ) ;
#229 = CARTESIAN_POINT ( 'NONE',  ( 0.0000000000000000000, 0.0000000000000000000, 0.0000000000000000000 ) ) ;
#230 = CIRCLE ( 'NONE', #197, 2.000000000000000400 ) ;
#231 = VERTEX_POINT ( 'NONE', #2 ) ;
#232 = AXIS2_PLACEMENT_3D ( 'NONE', #3, #22, #116 ) ;
#233 = LOCAL_TIME ( 14, 33, 10.00000000000000000, #13 ) ;
#234 = CARTESIAN_POINT ( 'NONE',  ( -3.000000000000000400, 3.673940397442060400E-016, -120.0000000000000000 ) ) ;
#235 = DIRECTION ( 'NONE',  ( 0.0000000000000000000, 0.0000000000000000000, -1.000000000000000000 ) ) ;
#236 = LOCAL_TIME ( 14, 33, 10.00000000000000000, #15 ) ;
#237 = VERTEX_POINT ( 'NONE', #159 ) ;
#238 = EDGE_LOOP ( 'NONE', ( #47, #62, #25, #212 ) ) ;
#239 = CARTESIAN_POINT ( 'NONE',  ( 0.0000000000000000000, 0.0000000000000000000, -118.9999999999999900 ) ) ;
#240 = PRODUCT_RELATED_PRODUCT_CATEGORY ( 'detail', '', ( #170 ) ) ;
#241 = PERSON_AND_ORGANIZATION ( #150, #208 ) ;
#242 = CARTESIAN_POINT ( 'NONE',  ( -3.000000000000000400, 3.673940397442060400E-016, -118.9999999999999900 ) ) ;
#243 = APPROVAL_ROLE ( '' ) ;
#244 =( LENGTH_UNIT ( ) NAMED_UNIT ( * ) SI_UNIT ( .MILLI., .METRE. ) );
#245 = APPROVAL_DATE_TIME ( #64, #139 ) ;
#246 = PERSON_AND_ORGANIZATION ( #150, #208 ) ;
#247 = ADVANCED_FACE ( 'NONE', ( #52 ), #260, .T. ) ;
#248 = COORDINATED_UNIVERSAL_TIME_OFFSET ( 1, 0, .AHEAD. ) ;
#249 = FACE_OUTER_BOUND ( 'NONE', #149, .T. ) ;
#250 = CC_DESIGN_SECURITY_CLASSIFICATION ( #27, ( #1 ) ) ;
#251 = CONICAL_SURFACE ( 'NONE', #56, 1.999999999999997800, 0.7853981633974491700 ) ;
#252 = EDGE_LOOP ( 'NONE', ( #87, #126, #110, #5 ) ) ;
#253 = EDGE_CURVE ( 'NONE', #133, #65, #171, .T. ) ;
#254 = CIRCLE ( 'NONE', #232, 1.999999999999997800 ) ;
#255 = ORIENTED_EDGE ( 'NONE', *, *, #67, .T. ) ;
#256 = CARTESIAN_POINT ( 'NONE',  ( 3.000000000000000400, 0.0000000000000000000, -1.000000000000000900 ) ) ;
#257 = EDGE_LOOP ( 'NONE', ( #125, #168, #119, #273 ) ) ;
#258 = DIRECTION ( 'NONE',  ( 1.000000000000000000, 0.0000000000000000000, 0.0000000000000000000 ) ) ;
#259 = CC_DESIGN_APPROVAL ( #35, ( #1 ) ) ;
#260 = CONICAL_SURFACE ( 'NONE', #45, 1.999999999999997800, 0.7853981633974491700 ) ;
#261 = CARTESIAN_POINT ( 'NONE',  ( 0.0000000000000000000, 0.0000000000000000000, 0.0000000000000000000 ) ) ;
#262 = CLOSED_SHELL ( 'NONE', ( #222, #146, #38, #152, #122, #30, #225, #247 ) ) ;
#263 = PERSON_AND_ORGANIZATION_ROLE ( 'creator' ) ;
#264 = DIRECTION ( 'NONE',  ( -0.0000000000000000000, -0.0000000000000000000, 1.000000000000000000 ) ) ;
#265 = PRODUCT_DEFINITION ( 'UNKNOWN', '', #1, #176 ) ;
#266 = PERSON_AND_ORGANIZATION_ROLE ( 'creator' ) ;
#267 = VERTEX_POINT ( 'NONE', #33 ) ;
#268 =( NAMED_UNIT ( * ) PLANE_ANGLE_UNIT ( ) SI_UNIT ( $, .RADIAN. ) );
#269 = EDGE_CURVE ( 'NONE', #179, #231, #270, .T. ) ;
#270 = CIRCLE ( 'NONE', #75, 1.999999999999997800 ) ;
#271 = UNCERTAINTY_MEASURE_WITH_UNIT (LENGTH_MEASURE( 1.000000000000000100E-005 ), #244, 'distance_accuracy_value', 'NONE');
#272 = ORIENTED_EDGE ( 'NONE', *, *, #17, .T. ) ;
#273 = ORIENTED_EDGE ( 'NONE', *, *, #228, .F. ) ;
#274 = CIRCLE ( 'NONE', #20, 3.000000000000000400 ) ;
#275 = VERTEX_POINT ( 'NONE', #242 ) ;
ENDSEC;
END-ISO-10303-21;
