ISO-10303-21;
HEADER;
FILE_DESCRIPTION (( 'STEP AP214' ),
    '1' );
FILE_NAME ('071509-2.STEP',
    '2023-09-05T13:32:00',
    ( '' ),
    ( '' ),
    'SwSTEP 2.0',
    'SolidWorks 2016',
    '' );
FILE_SCHEMA (( 'AUTOMOTIVE_DESIGN' ));
ENDSEC;

DATA;
#1 = CIRCLE ( 'NONE', #93, 5.049999999999999800 ) ;
#2 = ORIENTED_EDGE ( 'NONE', *, *, #162, .F. ) ;
#3 = ADVANCED_FACE ( 'NONE', ( #140 ), #133, .T. ) ;
#4 = EDGE_CURVE ( 'NONE', #90, #83, #122, .T. ) ;
#5 = DIRECTION ( 'NONE',  ( 1.000000000000000000, 0.0000000000000000000, 0.0000000000000000000 ) ) ;
#6 = AXIS2_PLACEMENT_3D ( 'NONE', #204, #60, #178 ) ;
#7 = ORIENTED_EDGE ( 'NONE', *, *, #146, .T. ) ;
#8 = DIRECTION ( 'NONE',  ( 0.0000000000000000000, 0.0000000000000000000, 1.000000000000000000 ) ) ;
#9 = DIRECTION ( 'NONE',  ( 1.000000000000000000, 0.0000000000000000000, 0.0000000000000000000 ) ) ;
#10 = CYLINDRICAL_SURFACE ( 'NONE', #136, 13.25000000000000200 ) ;
#11 = DIRECTION ( 'NONE',  ( -0.0000000000000000000, -0.0000000000000000000, -1.000000000000000000 ) ) ;
#12 = AXIS2_PLACEMENT_3D ( 'NONE', #175, #92, #255 ) ;
#13 = CARTESIAN_POINT ( 'NONE',  ( 0.0000000000000000000, 0.0000000000000000000, 5.500000000000000000 ) ) ;
#14 = CARTESIAN_POINT ( 'NONE',  ( 0.0000000000000000000, 0.0000000000000000000, 5.500000000000000000 ) ) ;
#15 = AXIS2_PLACEMENT_3D ( 'NONE', #41, #283, #59 ) ;
#16 = DIRECTION ( 'NONE',  ( 1.000000000000000000, 0.0000000000000000000, 0.0000000000000000000 ) ) ;
#17 = ORIENTED_EDGE ( 'NONE', *, *, #4, .F. ) ;
#18 = FILL_AREA_STYLE_COLOUR ( '', #63 ) ;
#19 = PRODUCT_RELATED_PRODUCT_CATEGORY ( 'part', '', ( #73 ) ) ;
#20 = VECTOR ( 'NONE', #243, 1000.000000000000000 ) ;
#21 = ORIENTED_EDGE ( 'NONE', *, *, #277, .T. ) ;
#22 = VERTEX_POINT ( 'NONE', #51 ) ;
#23 = ORIENTED_EDGE ( 'NONE', *, *, #240, .F. ) ;
#24 = DIRECTION ( 'NONE',  ( 1.000000000000000000, 0.0000000000000000000, 0.0000000000000000000 ) ) ;
#25 = ADVANCED_FACE ( 'NONE', ( #35, #70 ), #143, .F. ) ;
#26 = AXIS2_PLACEMENT_3D ( 'NONE', #144, #8, #9 ) ;
#27 = CARTESIAN_POINT ( 'NONE',  ( 13.25000000000000200, 1.622657008870243300E-015, 5.500000000000000000 ) ) ;
#28 = DIRECTION ( 'NONE',  ( 0.0000000000000000000, 0.0000000000000000000, 1.000000000000000000 ) ) ;
#29 = PRODUCT_DEFINITION_SHAPE ( 'NONE', 'NONE',  #99 ) ;
#30 = CYLINDRICAL_SURFACE ( 'NONE', #254, 13.25000000000000200 ) ;
#31 = UNCERTAINTY_MEASURE_WITH_UNIT (LENGTH_MEASURE( 1.000000000000000100E-005 ), #244, 'distance_accuracy_value', 'NONE');
#32 = PRESENTATION_STYLE_ASSIGNMENT (( #106 ) ) ;
#33 = AXIS2_PLACEMENT_3D ( 'NONE', #43, #288, #16 ) ;
#34 = VECTOR ( 'NONE', #123, 1000.000000000000000 ) ;
#35 = FACE_BOUND ( 'NONE', #176, .T. ) ;
#36 = EDGE_CURVE ( 'NONE', #259, #253, #182, .T. ) ;
#37 = EDGE_LOOP ( 'NONE', ( #160, #206, #21, #130 ) ) ;
#38 = DIRECTION ( 'NONE',  ( 0.0000000000000000000, 0.0000000000000000000, 1.000000000000000000 ) ) ;
#39 = DIRECTION ( 'NONE',  ( -1.000000000000000000, 0.0000000000000000000, 0.0000000000000000000 ) ) ;
#40 = FACE_OUTER_BOUND ( 'NONE', #174, .T. ) ;
#41 = CARTESIAN_POINT ( 'NONE',  ( 0.0000000000000000000, 0.0000000000000000000, 5.500000000000000000 ) ) ;
#42 = PLANE ( 'NONE',  #6 ) ;
#43 = CARTESIAN_POINT ( 'NONE',  ( 0.0000000000000000000, 0.0000000000000000000, -14.50000000000000000 ) ) ;
#44 = ORIENTED_EDGE ( 'NONE', *, *, #115, .T. ) ;
#45 = DIRECTION ( 'NONE',  ( 1.000000000000000000, 0.0000000000000000000, 0.0000000000000000000 ) ) ;
#46 = APPLICATION_CONTEXT ( 'automotive_design' ) ;
#47 = AXIS2_PLACEMENT_3D ( 'NONE', #117, #56, #129 ) ;
#48 = FACE_BOUND ( 'NONE', #226, .T. ) ;
#49 = FACE_OUTER_BOUND ( 'NONE', #260, .T. ) ;
#50 = APPLICATION_PROTOCOL_DEFINITION ( 'draft international standard', 'automotive_design', 1998, #46 ) ;
#51 = CARTESIAN_POINT ( 'NONE',  ( 25.00000000000000000, 0.0000000000000000000, -14.50000000000000000 ) ) ;
#52 = DIRECTION ( 'NONE',  ( 0.0000000000000000000, 0.0000000000000000000, 1.000000000000000000 ) ) ;
#53 = ORIENTED_EDGE ( 'NONE', *, *, #119, .T. ) ;
#54 = CARTESIAN_POINT ( 'NONE',  ( -5.049999999999999800, 6.184466335694133100E-016, -14.50000000000000000 ) ) ;
#55 = DIRECTION ( 'NONE',  ( 0.0000000000000000000, 0.0000000000000000000, 1.000000000000000000 ) ) ;
#56 = DIRECTION ( 'NONE',  ( 0.0000000000000000000, 0.0000000000000000000, 1.000000000000000000 ) ) ;
#57 = DIRECTION ( 'NONE',  ( -0.0000000000000000000, -0.0000000000000000000, -1.000000000000000000 ) ) ;
#58 =( LENGTH_UNIT ( ) NAMED_UNIT ( * ) SI_UNIT ( .MILLI., .METRE. ) );
#59 = DIRECTION ( 'NONE',  ( 1.000000000000000000, 0.0000000000000000000, 0.0000000000000000000 ) ) ;
#60 = DIRECTION ( 'NONE',  ( 0.0000000000000000000, 0.0000000000000000000, 1.000000000000000000 ) ) ;
#61 = AXIS2_PLACEMENT_3D ( 'NONE', #137, #158, #110 ) ;
#62 = AXIS2_PLACEMENT_3D ( 'NONE', #71, #52, #257 ) ;
#63 = COLOUR_RGB ( '',0.6980392156862744700, 0.6980392156862744700, 0.6980392156862744700 ) ;
#64 = PRODUCT_CONTEXT ( 'NONE', #46, 'mechanical' ) ;
#65 = FACE_OUTER_BOUND ( 'NONE', #248, .T. ) ;
#66 = CIRCLE ( 'NONE', #157, 25.00000000000000000 ) ;
#67 = VERTEX_POINT ( 'NONE', #191 ) ;
#68 = ORIENTED_EDGE ( 'NONE', *, *, #146, .F. ) ;
#69 = VECTOR ( 'NONE', #94, 1000.000000000000000 ) ;
#70 = FACE_OUTER_BOUND ( 'NONE', #139, .T. ) ;
#71 = CARTESIAN_POINT ( 'NONE',  ( 0.0000000000000000000, 0.0000000000000000000, -14.50000000000000000 ) ) ;
#72 = ADVANCED_FACE ( 'NONE', ( #239 ), #10, .T. ) ;
#73 = PRODUCT ( '071509-2', '071509-2', '', ( #64 ) ) ;
#74 = CARTESIAN_POINT ( 'NONE',  ( 0.0000000000000000000, 0.0000000000000000000, 0.0000000000000000000 ) ) ;
#75 =( GEOMETRIC_REPRESENTATION_CONTEXT ( 3 ) GLOBAL_UNCERTAINTY_ASSIGNED_CONTEXT ( ( #210 ) ) GLOBAL_UNIT_ASSIGNED_CONTEXT ( ( #270, #183, #87 ) ) REPRESENTATION_CONTEXT ( 'NONE', 'WORKASPACE' ) );
#76 = ADVANCED_BREP_SHAPE_REPRESENTATION ( '071509-2', ( #209, #224 ), #276 ) ;
#77 = AXIS2_PLACEMENT_3D ( 'NONE', #148, #28, #121 ) ;
#78 = LINE ( 'NONE', #281, #251 ) ;
#79 = ORIENTED_EDGE ( 'NONE', *, *, #97, .T. ) ;
#80 = DIRECTION ( 'NONE',  ( 0.0000000000000000000, 0.0000000000000000000, 1.000000000000000000 ) ) ;
#81 = CARTESIAN_POINT ( 'NONE',  ( -13.25000000000000200, 0.0000000000000000000, 5.500000000000000000 ) ) ;
#82 = FACE_OUTER_BOUND ( 'NONE', #91, .T. ) ;
#83 = VERTEX_POINT ( 'NONE', #236 ) ;
#84 = DIRECTION ( 'NONE',  ( 1.000000000000000000, 0.0000000000000000000, 0.0000000000000000000 ) ) ;
#85 = EDGE_CURVE ( 'NONE', #198, #67, #125, .T. ) ;
#86 = CARTESIAN_POINT ( 'NONE',  ( 0.0000000000000000000, 0.0000000000000000000, 0.0000000000000000000 ) ) ;
#87 =( NAMED_UNIT ( * ) SI_UNIT ( $, .STERADIAN. ) SOLID_ANGLE_UNIT ( ) );
#88 = CIRCLE ( 'NONE', #33, 25.00000000000000000 ) ;
#89 = ADVANCED_FACE ( 'NONE', ( #268, #49 ), #100, .T. ) ;
#90 = VERTEX_POINT ( 'NONE', #172 ) ;
#91 = EDGE_LOOP ( 'NONE', ( #96, #120 ) ) ;
#92 = DIRECTION ( 'NONE',  ( 0.0000000000000000000, 0.0000000000000000000, 1.000000000000000000 ) ) ;
#93 = AXIS2_PLACEMENT_3D ( 'NONE', #13, #149, #223 ) ;
#94 = DIRECTION ( 'NONE',  ( 0.0000000000000000000, 0.0000000000000000000, 1.000000000000000000 ) ) ;
#95 = CIRCLE ( 'NONE', #272, 25.00000000000000000 ) ;
#96 = ORIENTED_EDGE ( 'NONE', *, *, #150, .T. ) ;
#97 = EDGE_CURVE ( 'NONE', #156, #253, #128, .T. ) ;
#98 = EDGE_CURVE ( 'NONE', #177, #291, #132, .T. ) ;
#99 = PRODUCT_DEFINITION ( 'UNKNOWN', '', #116, #267 ) ;
#100 = PLANE ( 'NONE',  #170 ) ;
#101 = DIRECTION ( 'NONE',  ( 1.000000000000000000, 0.0000000000000000000, 0.0000000000000000000 ) ) ;
#102 = EDGE_CURVE ( 'NONE', #279, #259, #78, .T. ) ;
#103 = ORIENTED_EDGE ( 'NONE', *, *, #162, .T. ) ;
#104 = DIRECTION ( 'NONE',  ( 0.0000000000000000000, 0.0000000000000000000, 1.000000000000000000 ) ) ;
#105 = CARTESIAN_POINT ( 'NONE',  ( -13.25000000000000200, 0.0000000000000000000, 0.0000000000000000000 ) ) ;
#106 = SURFACE_STYLE_USAGE ( .BOTH. , #179 ) ;
#107 = LINE ( 'NONE', #118, #69 ) ;
#108 = ORIENTED_EDGE ( 'NONE', *, *, #115, .F. ) ;
#109 = APPLICATION_PROTOCOL_DEFINITION ( 'draft international standard', 'automotive_design', 1998, #113 ) ;
#110 = DIRECTION ( 'NONE',  ( 1.000000000000000000, 0.0000000000000000000, 0.0000000000000000000 ) ) ;
#111 = EDGE_LOOP ( 'NONE', ( #285, #280, #2, #68 ) ) ;
#112 =( NAMED_UNIT ( * ) PLANE_ANGLE_UNIT ( ) SI_UNIT ( $, .RADIAN. ) );
#113 = APPLICATION_CONTEXT ( 'automotive_design' ) ;
#114 = EDGE_CURVE ( 'NONE', #90, #22, #194, .T. ) ;
#115 = EDGE_CURVE ( 'NONE', #253, #259, #159, .T. ) ;
#116 = PRODUCT_DEFINITION_FORMATION_WITH_SPECIFIED_SOURCE ( 'ANY', '', #73, .NOT_KNOWN. ) ;
#117 = CARTESIAN_POINT ( 'NONE',  ( 0.0000000000000000000, 0.0000000000000000000, 5.500000000000000000 ) ) ;
#118 = CARTESIAN_POINT ( 'NONE',  ( 25.00000000000000000, 0.0000000000000000000, -14.50000000000000000 ) ) ;
#119 = EDGE_CURVE ( 'NONE', #83, #153, #66, .T. ) ;
#120 = ORIENTED_EDGE ( 'NONE', *, *, #219, .T. ) ;
#121 = DIRECTION ( 'NONE',  ( 1.000000000000000000, 0.0000000000000000000, 0.0000000000000000000 ) ) ;
#122 = LINE ( 'NONE', #232, #284 ) ;
#123 = DIRECTION ( 'NONE',  ( -0.0000000000000000000, -0.0000000000000000000, -1.000000000000000000 ) ) ;
#124 = AXIS2_PLACEMENT_3D ( 'NONE', #252, #55, #218 ) ;
#125 = LINE ( 'NONE', #54, #20 ) ;
#126 = CARTESIAN_POINT ( 'NONE',  ( 0.0000000000000000000, 0.0000000000000000000, -14.50000000000000000 ) ) ;
#127 = DIRECTION ( 'NONE',  ( 1.000000000000000000, 0.0000000000000000000, 0.0000000000000000000 ) ) ;
#128 = LINE ( 'NONE', #27, #34 ) ;
#129 = DIRECTION ( 'NONE',  ( 1.000000000000000000, 0.0000000000000000000, 0.0000000000000000000 ) ) ;
#130 = ORIENTED_EDGE ( 'NONE', *, *, #98, .F. ) ;
#131 = EDGE_CURVE ( 'NONE', #177, #198, #186, .T. ) ;
#132 = LINE ( 'NONE', #214, #202 ) ;
#133 = CYLINDRICAL_SURFACE ( 'NONE', #292, 25.00000000000000000 ) ;
#134 = ORIENTED_EDGE ( 'NONE', *, *, #230, .T. ) ;
#135 = DIRECTION ( 'NONE',  ( 0.0000000000000000000, 0.0000000000000000000, 1.000000000000000000 ) ) ;
#136 = AXIS2_PLACEMENT_3D ( 'NONE', #167, #192, #145 ) ;
#137 = CARTESIAN_POINT ( 'NONE',  ( 0.0000000000000000000, 0.0000000000000000000, 5.500000000000000000 ) ) ;
#138 = CYLINDRICAL_SURFACE ( 'NONE', #213, 5.049999999999999800 ) ;
#139 = EDGE_LOOP ( 'NONE', ( #23, #247 ) ) ;
#140 = FACE_OUTER_BOUND ( 'NONE', #111, .T. ) ;
#141 = DIRECTION ( 'NONE',  ( 0.0000000000000000000, 0.0000000000000000000, 1.000000000000000000 ) ) ;
#142 = ORIENTED_EDGE ( 'NONE', *, *, #114, .T. ) ;
#143 = PLANE ( 'NONE',  #62 ) ;
#144 = CARTESIAN_POINT ( 'NONE',  ( 0.0000000000000000000, 0.0000000000000000000, -14.50000000000000000 ) ) ;
#145 = DIRECTION ( 'NONE',  ( -1.000000000000000000, 0.0000000000000000000, 0.0000000000000000000 ) ) ;
#146 = EDGE_CURVE ( 'NONE', #22, #153, #107, .T. ) ;
#147 = EDGE_LOOP ( 'NONE', ( #222, #108 ) ) ;
#148 = CARTESIAN_POINT ( 'NONE',  ( 0.0000000000000000000, 0.0000000000000000000, 0.0000000000000000000 ) ) ;
#149 = DIRECTION ( 'NONE',  ( 0.0000000000000000000, 0.0000000000000000000, 1.000000000000000000 ) ) ;
#150 = EDGE_CURVE ( 'NONE', #279, #156, #274, .T. ) ;
#151 = CARTESIAN_POINT ( 'NONE',  ( -5.049999999999999800, 6.184466335694133100E-016, -14.50000000000000000 ) ) ;
#152 = SURFACE_STYLE_FILL_AREA ( #154 ) ;
#153 = VERTEX_POINT ( 'NONE', #233 ) ;
#154 = FILL_AREA_STYLE ('',( #261 ) ) ;
#155 = UNCERTAINTY_MEASURE_WITH_UNIT (LENGTH_MEASURE( 1.000000000000000100E-005 ), #58, 'distance_accuracy_value', 'NONE');
#156 = VERTEX_POINT ( 'NONE', #282 ) ;
#157 = AXIS2_PLACEMENT_3D ( 'NONE', #195, #38, #24 ) ;
#158 = DIRECTION ( 'NONE',  ( 0.0000000000000000000, 0.0000000000000000000, 1.000000000000000000 ) ) ;
#159 = CIRCLE ( 'NONE', #12, 13.25000000000000200 ) ;
#160 = ORIENTED_EDGE ( 'NONE', *, *, #246, .F. ) ;
#161 = ADVANCED_FACE ( 'NONE', ( #40 ), #138, .F. ) ;
#162 = EDGE_CURVE ( 'NONE', #153, #83, #95, .T. ) ;
#163 = CARTESIAN_POINT ( 'NONE',  ( 0.0000000000000000000, 0.0000000000000000000, -14.50000000000000000 ) ) ;
#164 = COLOUR_RGB ( '',0.6980392156862744700, 0.6980392156862744700, 0.6980392156862744700 ) ;
#165 = ORIENTED_EDGE ( 'NONE', *, *, #131, .T. ) ;
#166 = AXIS2_PLACEMENT_3D ( 'NONE', #262, #199, #84 ) ;
#167 = CARTESIAN_POINT ( 'NONE',  ( 0.0000000000000000000, 0.0000000000000000000, 5.500000000000000000 ) ) ;
#168 = DIRECTION ( 'NONE',  ( 1.000000000000000000, 0.0000000000000000000, -0.0000000000000000000 ) ) ;
#169 = CIRCLE ( 'NONE', #15, 13.25000000000000200 ) ;
#170 = AXIS2_PLACEMENT_3D ( 'NONE', #74, #80, #168 ) ;
#171 = ORIENTED_EDGE ( 'NONE', *, *, #150, .F. ) ;
#172 = CARTESIAN_POINT ( 'NONE',  ( -25.00000000000000000, 3.061616997868382300E-015, -14.50000000000000000 ) ) ;
#173 = ORIENTED_EDGE ( 'NONE', *, *, #246, .T. ) ;
#174 = EDGE_LOOP ( 'NONE', ( #215, #189, #241, #134 ) ) ;
#175 = CARTESIAN_POINT ( 'NONE',  ( 0.0000000000000000000, 0.0000000000000000000, 0.0000000000000000000 ) ) ;
#176 = EDGE_LOOP ( 'NONE', ( #165, #173 ) ) ;
#177 = VERTEX_POINT ( 'NONE', #201 ) ;
#178 = DIRECTION ( 'NONE',  ( 1.000000000000000000, 0.0000000000000000000, -0.0000000000000000000 ) ) ;
#179 = SURFACE_SIDE_STYLE ('',( #152 ) ) ;
#180 =( NAMED_UNIT ( * ) SI_UNIT ( $, .STERADIAN. ) SOLID_ANGLE_UNIT ( ) );
#181 = CARTESIAN_POINT ( 'NONE',  ( 0.0000000000000000000, 0.0000000000000000000, -14.50000000000000000 ) ) ;
#182 = CIRCLE ( 'NONE', #77, 13.25000000000000200 ) ;
#183 =( NAMED_UNIT ( * ) PLANE_ANGLE_UNIT ( ) SI_UNIT ( $, .RADIAN. ) );
#184 = ORIENTED_EDGE ( 'NONE', *, *, #230, .F. ) ;
#185 = STYLED_ITEM ( 'NONE', ( #32 ), #209 ) ;
#186 = CIRCLE ( 'NONE', #26, 5.049999999999999800 ) ;
#187 = ORIENTED_EDGE ( 'NONE', *, *, #102, .T. ) ;
#188 = ADVANCED_FACE ( 'NONE', ( #258 ), #238, .T. ) ;
#189 = ORIENTED_EDGE ( 'NONE', *, *, #131, .F. ) ;
#190 = ADVANCED_FACE ( 'NONE', ( #263 ), #211, .F. ) ;
#191 = CARTESIAN_POINT ( 'NONE',  ( -5.049999999999999800, 6.184466335694133100E-016, 5.500000000000000000 ) ) ;
#192 = DIRECTION ( 'NONE',  ( -0.0000000000000000000, -0.0000000000000000000, -1.000000000000000000 ) ) ;
#193 = CLOSED_SHELL ( 'NONE', ( #190, #72, #3, #188, #25, #89, #275, #250, #161 ) ) ;
#194 = CIRCLE ( 'NONE', #124, 25.00000000000000000 ) ;
#195 = CARTESIAN_POINT ( 'NONE',  ( 0.0000000000000000000, 0.0000000000000000000, 0.0000000000000000000 ) ) ;
#196 = EDGE_LOOP ( 'NONE', ( #17, #142, #7, #207 ) ) ;
#197 =( GEOMETRIC_REPRESENTATION_CONTEXT ( 3 ) GLOBAL_UNCERTAINTY_ASSIGNED_CONTEXT ( ( #155 ) ) GLOBAL_UNIT_ASSIGNED_CONTEXT ( ( #58, #265, #180 ) ) REPRESENTATION_CONTEXT ( 'NONE', 'WORKASPACE' ) );
#198 = VERTEX_POINT ( 'NONE', #151 ) ;
#199 = DIRECTION ( 'NONE',  ( 0.0000000000000000000, 0.0000000000000000000, 1.000000000000000000 ) ) ;
#200 = PRESENTATION_LAYER_ASSIGNMENT (  '', '', ( #185 ) ) ;
#201 = CARTESIAN_POINT ( 'NONE',  ( 5.049999999999999800, 0.0000000000000000000, -14.50000000000000000 ) ) ;
#202 = VECTOR ( 'NONE', #212, 1000.000000000000000 ) ;
#203 = DIRECTION ( 'NONE',  ( 0.0000000000000000000, 0.0000000000000000000, 1.000000000000000000 ) ) ;
#204 = CARTESIAN_POINT ( 'NONE',  ( 0.0000000000000000000, 0.0000000000000000000, 5.500000000000000000 ) ) ;
#205 = CARTESIAN_POINT ( 'NONE',  ( 13.25000000000000200, 1.622657008870243300E-015, 0.0000000000000000000 ) ) ;
#206 = ORIENTED_EDGE ( 'NONE', *, *, #85, .T. ) ;
#207 = ORIENTED_EDGE ( 'NONE', *, *, #119, .F. ) ;
#208 =( NAMED_UNIT ( * ) SI_UNIT ( $, .STERADIAN. ) SOLID_ANGLE_UNIT ( ) );
#209 = MANIFOLD_SOLID_BREP ( 'Schnitt-Linear austragen1', #193 ) ;
#210 = UNCERTAINTY_MEASURE_WITH_UNIT (LENGTH_MEASURE( 1.000000000000000100E-005 ), #270, 'distance_accuracy_value', 'NONE');
#211 = CYLINDRICAL_SURFACE ( 'NONE', #256, 5.049999999999999800 ) ;
#212 = DIRECTION ( 'NONE',  ( -0.0000000000000000000, -0.0000000000000000000, 1.000000000000000000 ) ) ;
#213 = AXIS2_PLACEMENT_3D ( 'NONE', #126, #225, #127 ) ;
#214 = CARTESIAN_POINT ( 'NONE',  ( 5.049999999999999800, 0.0000000000000000000, -14.50000000000000000 ) ) ;
#215 = ORIENTED_EDGE ( 'NONE', *, *, #85, .F. ) ;
#216 = PRESENTATION_STYLE_ASSIGNMENT (( #227 ) ) ;
#217 = ORIENTED_EDGE ( 'NONE', *, *, #277, .F. ) ;
#218 = DIRECTION ( 'NONE',  ( 1.000000000000000000, 0.0000000000000000000, 0.0000000000000000000 ) ) ;
#219 = EDGE_CURVE ( 'NONE', #156, #279, #169, .T. ) ;
#220 = SHAPE_DEFINITION_REPRESENTATION ( #29, #76 ) ;
#221 = STYLED_ITEM ( 'NONE', ( #216 ), #76 ) ;
#222 = ORIENTED_EDGE ( 'NONE', *, *, #36, .F. ) ;
#223 = DIRECTION ( 'NONE',  ( 1.000000000000000000, 0.0000000000000000000, 0.0000000000000000000 ) ) ;
#224 = AXIS2_PLACEMENT_3D ( 'NONE', #294, #135, #45 ) ;
#225 = DIRECTION ( 'NONE',  ( -0.0000000000000000000, -0.0000000000000000000, 1.000000000000000000 ) ) ;
#226 = EDGE_LOOP ( 'NONE', ( #184, #217 ) ) ;
#227 = SURFACE_STYLE_USAGE ( .BOTH. , #271 ) ;
#228 = PRESENTATION_LAYER_ASSIGNMENT (  '', '', ( #221 ) ) ;
#229 = EDGE_LOOP ( 'NONE', ( #269, #79, #44, #235 ) ) ;
#230 = EDGE_CURVE ( 'NONE', #291, #67, #1, .T. ) ;
#231 = FILL_AREA_STYLE ('',( #18 ) ) ;
#232 = CARTESIAN_POINT ( 'NONE',  ( -25.00000000000000000, 3.061616997868382300E-015, -14.50000000000000000 ) ) ;
#233 = CARTESIAN_POINT ( 'NONE',  ( 25.00000000000000000, 0.0000000000000000000, 0.0000000000000000000 ) ) ;
#234 = CIRCLE ( 'NONE', #61, 5.049999999999999800 ) ;
#235 = ORIENTED_EDGE ( 'NONE', *, *, #102, .F. ) ;
#236 = CARTESIAN_POINT ( 'NONE',  ( -25.00000000000000000, 3.061616997868382300E-015, 0.0000000000000000000 ) ) ;
#237 = MECHANICAL_DESIGN_GEOMETRIC_PRESENTATION_REPRESENTATION (  '', ( #221 ), #75 ) ;
#238 = CYLINDRICAL_SURFACE ( 'NONE', #245, 25.00000000000000000 ) ;
#239 = FACE_OUTER_BOUND ( 'NONE', #229, .T. ) ;
#240 = EDGE_CURVE ( 'NONE', #22, #90, #88, .T. ) ;
#241 = ORIENTED_EDGE ( 'NONE', *, *, #98, .T. ) ;
#242 = ORIENTED_EDGE ( 'NONE', *, *, #97, .F. ) ;
#243 = DIRECTION ( 'NONE',  ( -0.0000000000000000000, -0.0000000000000000000, 1.000000000000000000 ) ) ;
#244 =( LENGTH_UNIT ( ) NAMED_UNIT ( * ) SI_UNIT ( .MILLI., .METRE. ) );
#245 = AXIS2_PLACEMENT_3D ( 'NONE', #181, #104, #290 ) ;
#246 = EDGE_CURVE ( 'NONE', #198, #177, #273, .T. ) ;
#247 = ORIENTED_EDGE ( 'NONE', *, *, #114, .F. ) ;
#248 = EDGE_LOOP ( 'NONE', ( #242, #171, #187, #293 ) ) ;
#249 = DIRECTION ( 'NONE',  ( 0.0000000000000000000, 0.0000000000000000000, 1.000000000000000000 ) ) ;
#250 = ADVANCED_FACE ( 'NONE', ( #48, #82 ), #42, .T. ) ;
#251 = VECTOR ( 'NONE', #11, 1000.000000000000000 ) ;
#252 = CARTESIAN_POINT ( 'NONE',  ( 0.0000000000000000000, 0.0000000000000000000, -14.50000000000000000 ) ) ;
#253 = VERTEX_POINT ( 'NONE', #205 ) ;
#254 = AXIS2_PLACEMENT_3D ( 'NONE', #14, #57, #39 ) ;
#255 = DIRECTION ( 'NONE',  ( 1.000000000000000000, 0.0000000000000000000, 0.0000000000000000000 ) ) ;
#256 = AXIS2_PLACEMENT_3D ( 'NONE', #264, #266, #101 ) ;
#257 = DIRECTION ( 'NONE',  ( 1.000000000000000000, 0.0000000000000000000, -0.0000000000000000000 ) ) ;
#258 = FACE_OUTER_BOUND ( 'NONE', #196, .T. ) ;
#259 = VERTEX_POINT ( 'NONE', #105 ) ;
#260 = EDGE_LOOP ( 'NONE', ( #103, #53 ) ) ;
#261 = FILL_AREA_STYLE_COLOUR ( '', #164 ) ;
#262 = CARTESIAN_POINT ( 'NONE',  ( 0.0000000000000000000, 0.0000000000000000000, -14.50000000000000000 ) ) ;
#263 = FACE_OUTER_BOUND ( 'NONE', #37, .T. ) ;
#264 = CARTESIAN_POINT ( 'NONE',  ( 0.0000000000000000000, 0.0000000000000000000, -14.50000000000000000 ) ) ;
#265 =( NAMED_UNIT ( * ) PLANE_ANGLE_UNIT ( ) SI_UNIT ( $, .RADIAN. ) );
#266 = DIRECTION ( 'NONE',  ( -0.0000000000000000000, -0.0000000000000000000, 1.000000000000000000 ) ) ;
#267 = PRODUCT_DEFINITION_CONTEXT ( 'detailed design', #113, 'design' ) ;
#268 = FACE_BOUND ( 'NONE', #147, .T. ) ;
#269 = ORIENTED_EDGE ( 'NONE', *, *, #219, .F. ) ;
#270 =( LENGTH_UNIT ( ) NAMED_UNIT ( * ) SI_UNIT ( .MILLI., .METRE. ) );
#271 = SURFACE_SIDE_STYLE ('',( #278 ) ) ;
#272 = AXIS2_PLACEMENT_3D ( 'NONE', #86, #203, #286 ) ;
#273 = CIRCLE ( 'NONE', #166, 5.049999999999999800 ) ;
#274 = CIRCLE ( 'NONE', #47, 13.25000000000000200 ) ;
#275 = ADVANCED_FACE ( 'NONE', ( #65 ), #30, .T. ) ;
#276 =( GEOMETRIC_REPRESENTATION_CONTEXT ( 3 ) GLOBAL_UNCERTAINTY_ASSIGNED_CONTEXT ( ( #31 ) ) GLOBAL_UNIT_ASSIGNED_CONTEXT ( ( #244, #112, #208 ) ) REPRESENTATION_CONTEXT ( 'NONE', 'WORKASPACE' ) );
#277 = EDGE_CURVE ( 'NONE', #67, #291, #234, .T. ) ;
#278 = SURFACE_STYLE_FILL_AREA ( #231 ) ;
#279 = VERTEX_POINT ( 'NONE', #81 ) ;
#280 = ORIENTED_EDGE ( 'NONE', *, *, #4, .T. ) ;
#281 = CARTESIAN_POINT ( 'NONE',  ( -13.25000000000000200, 0.0000000000000000000, 5.500000000000000000 ) ) ;
#282 = CARTESIAN_POINT ( 'NONE',  ( 13.25000000000000200, 1.622657008870243300E-015, 5.500000000000000000 ) ) ;
#283 = DIRECTION ( 'NONE',  ( 0.0000000000000000000, 0.0000000000000000000, 1.000000000000000000 ) ) ;
#284 = VECTOR ( 'NONE', #249, 1000.000000000000000 ) ;
#285 = ORIENTED_EDGE ( 'NONE', *, *, #240, .T. ) ;
#286 = DIRECTION ( 'NONE',  ( 1.000000000000000000, 0.0000000000000000000, 0.0000000000000000000 ) ) ;
#287 = MECHANICAL_DESIGN_GEOMETRIC_PRESENTATION_REPRESENTATION (  '', ( #185 ), #197 ) ;
#288 = DIRECTION ( 'NONE',  ( 0.0000000000000000000, 0.0000000000000000000, 1.000000000000000000 ) ) ;
#289 = CARTESIAN_POINT ( 'NONE',  ( 5.049999999999999800, 0.0000000000000000000, 5.500000000000000000 ) ) ;
#290 = DIRECTION ( 'NONE',  ( 1.000000000000000000, 0.0000000000000000000, 0.0000000000000000000 ) ) ;
#291 = VERTEX_POINT ( 'NONE', #289 ) ;
#292 = AXIS2_PLACEMENT_3D ( 'NONE', #163, #141, #5 ) ;
#293 = ORIENTED_EDGE ( 'NONE', *, *, #36, .T. ) ;
#294 = CARTESIAN_POINT ( 'NONE',  ( 0.0000000000000000000, 0.0000000000000000000, 0.0000000000000000000 ) ) ;
ENDSEC;
END-ISO-10303-21;
