ISO-10303-21;
HEADER;
/* Generated by software containing ST-Developer
 * from STEP Tools, Inc. (www.steptools.com) 
 */

FILE_DESCRIPTION(
/* description */ ('Gegenschraubblech'),
/* implementation_level */ '2;1');

FILE_NAME(
/* name */ '00055023.stp',
/* time_stamp */ '2023-08-24T14:27:37+02:00',
/* author */ ('MD25'),
/* organization */ (''),
/* preprocessor_version */ 'ST-DEVELOPER v19.2',
/* originating_system */ 'Autodesk Inventor 2023',
/* authorisation */ '');

FILE_SCHEMA (('AUTOMOTIVE_DESIGN { 1 0 10303 214 3 1 1 }'));
ENDSEC;

DATA;
#10=MECHANICAL_DESIGN_GEOMETRIC_PRESENTATION_REPRESENTATION('',(#13),#274);
#11=SHAPE_REPRESENTATION_RELATIONSHIP('SRR','None',#281,#12);
#12=ADVANCED_BREP_SHAPE_REPRESENTATION('',(#14),#273);
#13=STYLED_ITEM('',(#290),#14);
#14=MANIFOLD_SOLID_BREP('Volumenk\X\F6rper1',#149);
#15=FACE_BOUND('',#34,.T.);
#16=FACE_BOUND('',#35,.T.);
#17=FACE_BOUND('',#41,.T.);
#18=FACE_BOUND('',#42,.T.);
#19=PLANE('',#178);
#20=PLANE('',#183);
#21=PLANE('',#186);
#22=PLANE('',#187);
#23=FACE_OUTER_BOUND('',#31,.T.);
#24=FACE_OUTER_BOUND('',#32,.T.);
#25=FACE_OUTER_BOUND('',#33,.T.);
#26=FACE_OUTER_BOUND('',#36,.T.);
#27=FACE_OUTER_BOUND('',#37,.T.);
#28=FACE_OUTER_BOUND('',#38,.T.);
#29=FACE_OUTER_BOUND('',#39,.T.);
#30=FACE_OUTER_BOUND('',#40,.T.);
#31=EDGE_LOOP('',(#101,#102,#103,#104));
#32=EDGE_LOOP('',(#105,#106,#107,#108));
#33=EDGE_LOOP('',(#109,#110,#111,#112));
#34=EDGE_LOOP('',(#113));
#35=EDGE_LOOP('',(#114));
#36=EDGE_LOOP('',(#115,#116,#117,#118));
#37=EDGE_LOOP('',(#119,#120,#121,#122));
#38=EDGE_LOOP('',(#123,#124,#125,#126));
#39=EDGE_LOOP('',(#127,#128,#129,#130));
#40=EDGE_LOOP('',(#131,#132,#133,#134));
#41=EDGE_LOOP('',(#135));
#42=EDGE_LOOP('',(#136));
#43=LINE('',#237,#53);
#44=LINE('',#243,#54);
#45=LINE('',#248,#55);
#46=LINE('',#252,#56);
#47=LINE('',#256,#57);
#48=LINE('',#259,#58);
#49=LINE('',#262,#59);
#50=LINE('',#263,#60);
#51=LINE('',#267,#61);
#52=LINE('',#269,#62);
#53=VECTOR('',#194,1.2295);
#54=VECTOR('',#201,1.2295);
#55=VECTOR('',#206,10.);
#56=VECTOR('',#209,10.);
#57=VECTOR('',#214,10.);
#58=VECTOR('',#217,10.);
#59=VECTOR('',#220,10.);
#60=VECTOR('',#221,10.);
#61=VECTOR('',#226,10.);
#62=VECTOR('',#229,10.);
#63=CIRCLE('',#173,1.2295);
#64=CIRCLE('',#174,1.2295);
#65=CIRCLE('',#176,1.2295);
#66=CIRCLE('',#177,1.2295);
#67=CIRCLE('',#179,3.75);
#68=CIRCLE('',#180,3.75);
#69=CIRCLE('',#182,3.75);
#70=CIRCLE('',#185,3.75);
#71=VERTEX_POINT('',#234);
#72=VERTEX_POINT('',#236);
#73=VERTEX_POINT('',#240);
#74=VERTEX_POINT('',#242);
#75=VERTEX_POINT('',#246);
#76=VERTEX_POINT('',#247);
#77=VERTEX_POINT('',#249);
#78=VERTEX_POINT('',#251);
#79=VERTEX_POINT('',#255);
#80=VERTEX_POINT('',#257);
#81=VERTEX_POINT('',#261);
#82=VERTEX_POINT('',#265);
#83=EDGE_CURVE('',#71,#71,#63,.T.);
#84=EDGE_CURVE('',#71,#72,#43,.T.);
#85=EDGE_CURVE('',#72,#72,#64,.T.);
#86=EDGE_CURVE('',#73,#73,#65,.T.);
#87=EDGE_CURVE('',#73,#74,#44,.T.);
#88=EDGE_CURVE('',#74,#74,#66,.T.);
#89=EDGE_CURVE('',#75,#76,#45,.T.);
#90=EDGE_CURVE('',#76,#77,#67,.T.);
#91=EDGE_CURVE('',#77,#78,#46,.T.);
#92=EDGE_CURVE('',#78,#75,#68,.T.);
#93=EDGE_CURVE('',#79,#76,#47,.T.);
#94=EDGE_CURVE('',#80,#79,#69,.T.);
#95=EDGE_CURVE('',#77,#80,#48,.T.);
#96=EDGE_CURVE('',#81,#80,#49,.T.);
#97=EDGE_CURVE('',#78,#81,#50,.T.);
#98=EDGE_CURVE('',#82,#81,#70,.T.);
#99=EDGE_CURVE('',#75,#82,#51,.T.);
#100=EDGE_CURVE('',#79,#82,#52,.T.);
#101=ORIENTED_EDGE('',*,*,#83,.F.);
#102=ORIENTED_EDGE('',*,*,#84,.T.);
#103=ORIENTED_EDGE('',*,*,#85,.F.);
#104=ORIENTED_EDGE('',*,*,#84,.F.);
#105=ORIENTED_EDGE('',*,*,#86,.F.);
#106=ORIENTED_EDGE('',*,*,#87,.T.);
#107=ORIENTED_EDGE('',*,*,#88,.F.);
#108=ORIENTED_EDGE('',*,*,#87,.F.);
#109=ORIENTED_EDGE('',*,*,#89,.T.);
#110=ORIENTED_EDGE('',*,*,#90,.T.);
#111=ORIENTED_EDGE('',*,*,#91,.T.);
#112=ORIENTED_EDGE('',*,*,#92,.T.);
#113=ORIENTED_EDGE('',*,*,#85,.T.);
#114=ORIENTED_EDGE('',*,*,#88,.T.);
#115=ORIENTED_EDGE('',*,*,#93,.F.);
#116=ORIENTED_EDGE('',*,*,#94,.F.);
#117=ORIENTED_EDGE('',*,*,#95,.F.);
#118=ORIENTED_EDGE('',*,*,#90,.F.);
#119=ORIENTED_EDGE('',*,*,#95,.T.);
#120=ORIENTED_EDGE('',*,*,#96,.F.);
#121=ORIENTED_EDGE('',*,*,#97,.F.);
#122=ORIENTED_EDGE('',*,*,#91,.F.);
#123=ORIENTED_EDGE('',*,*,#97,.T.);
#124=ORIENTED_EDGE('',*,*,#98,.F.);
#125=ORIENTED_EDGE('',*,*,#99,.F.);
#126=ORIENTED_EDGE('',*,*,#92,.F.);
#127=ORIENTED_EDGE('',*,*,#99,.T.);
#128=ORIENTED_EDGE('',*,*,#100,.F.);
#129=ORIENTED_EDGE('',*,*,#93,.T.);
#130=ORIENTED_EDGE('',*,*,#89,.F.);
#131=ORIENTED_EDGE('',*,*,#100,.T.);
#132=ORIENTED_EDGE('',*,*,#98,.T.);
#133=ORIENTED_EDGE('',*,*,#96,.T.);
#134=ORIENTED_EDGE('',*,*,#94,.T.);
#135=ORIENTED_EDGE('',*,*,#83,.T.);
#136=ORIENTED_EDGE('',*,*,#86,.T.);
#137=CYLINDRICAL_SURFACE('',#172,1.2295);
#138=CYLINDRICAL_SURFACE('',#175,1.2295);
#139=CYLINDRICAL_SURFACE('',#181,3.75);
#140=CYLINDRICAL_SURFACE('',#184,3.75);
#141=ADVANCED_FACE('',(#23),#137,.F.);
#142=ADVANCED_FACE('',(#24),#138,.F.);
#143=ADVANCED_FACE('',(#25,#15,#16),#19,.F.);
#144=ADVANCED_FACE('',(#26),#139,.T.);
#145=ADVANCED_FACE('',(#27),#20,.T.);
#146=ADVANCED_FACE('',(#28),#140,.T.);
#147=ADVANCED_FACE('',(#29),#21,.T.);
#148=ADVANCED_FACE('',(#30,#17,#18),#22,.T.);
#149=CLOSED_SHELL('',(#141,#142,#143,#144,#145,#146,#147,#148));
#150=DERIVED_UNIT_ELEMENT(#153,1.);
#151=DERIVED_UNIT_ELEMENT(#276,-3.);
#152=DIMENSIONAL_EXPONENTS(0.,1.,0.,0.,0.,0.,0.);
#153=(
CONVERSION_BASED_UNIT('gram',#155)
MASS_UNIT()
NAMED_UNIT(#152)
);
#154=(
MASS_UNIT()
NAMED_UNIT(*)
SI_UNIT(.KILO.,.GRAM.)
);
#155=MASS_MEASURE_WITH_UNIT(MASS_MEASURE(0.001),#154);
#156=DERIVED_UNIT((#150,#151));
#157=MEASURE_REPRESENTATION_ITEM('density measure',
POSITIVE_RATIO_MEASURE(7.85),#156);
#158=PROPERTY_DEFINITION_REPRESENTATION(#163,#160);
#159=PROPERTY_DEFINITION_REPRESENTATION(#164,#161);
#160=REPRESENTATION('material name',(#162),#273);
#161=REPRESENTATION('density',(#157),#273);
#162=DESCRIPTIVE_REPRESENTATION_ITEM('S235JR (1.0038)',
'S235JR (1.0038)');
#163=PROPERTY_DEFINITION('material property','material name',#283);
#164=PROPERTY_DEFINITION('material property','density of part',#283);
#165=DATE_TIME_ROLE('creation_date');
#166=APPLIED_DATE_AND_TIME_ASSIGNMENT(#167,#165,(#283));
#167=DATE_AND_TIME(#168,#169);
#168=CALENDAR_DATE(2023,28,6);
#169=LOCAL_TIME(0,0,0.,#170);
#170=COORDINATED_UNIVERSAL_TIME_OFFSET(0,0,.BEHIND.);
#171=AXIS2_PLACEMENT_3D('',#232,#188,#189);
#172=AXIS2_PLACEMENT_3D('',#233,#190,#191);
#173=AXIS2_PLACEMENT_3D('',#235,#192,#193);
#174=AXIS2_PLACEMENT_3D('',#238,#195,#196);
#175=AXIS2_PLACEMENT_3D('',#239,#197,#198);
#176=AXIS2_PLACEMENT_3D('',#241,#199,#200);
#177=AXIS2_PLACEMENT_3D('',#244,#202,#203);
#178=AXIS2_PLACEMENT_3D('',#245,#204,#205);
#179=AXIS2_PLACEMENT_3D('',#250,#207,#208);
#180=AXIS2_PLACEMENT_3D('',#253,#210,#211);
#181=AXIS2_PLACEMENT_3D('',#254,#212,#213);
#182=AXIS2_PLACEMENT_3D('',#258,#215,#216);
#183=AXIS2_PLACEMENT_3D('',#260,#218,#219);
#184=AXIS2_PLACEMENT_3D('',#264,#222,#223);
#185=AXIS2_PLACEMENT_3D('',#266,#224,#225);
#186=AXIS2_PLACEMENT_3D('',#268,#227,#228);
#187=AXIS2_PLACEMENT_3D('',#270,#230,#231);
#188=DIRECTION('axis',(0.,0.,1.));
#189=DIRECTION('refdir',(1.,0.,0.));
#190=DIRECTION('center_axis',(0.,1.,0.));
#191=DIRECTION('ref_axis',(-1.,0.,0.));
#192=DIRECTION('center_axis',(0.,-1.,0.));
#193=DIRECTION('ref_axis',(-1.,0.,0.));
#194=DIRECTION('',(0.,-1.,0.));
#195=DIRECTION('center_axis',(0.,1.,0.));
#196=DIRECTION('ref_axis',(-1.,0.,0.));
#197=DIRECTION('center_axis',(0.,1.,0.));
#198=DIRECTION('ref_axis',(-1.,0.,0.));
#199=DIRECTION('center_axis',(0.,-1.,0.));
#200=DIRECTION('ref_axis',(-1.,0.,0.));
#201=DIRECTION('',(0.,-1.,0.));
#202=DIRECTION('center_axis',(0.,1.,0.));
#203=DIRECTION('ref_axis',(-1.,0.,0.));
#204=DIRECTION('center_axis',(0.,1.,0.));
#205=DIRECTION('ref_axis',(0.,0.,1.));
#206=DIRECTION('',(1.,0.,1.77730473525906E-16));
#207=DIRECTION('center_axis',(0.,-1.,0.));
#208=DIRECTION('ref_axis',(0.,0.,1.));
#209=DIRECTION('',(-1.,0.,0.));
#210=DIRECTION('center_axis',(0.,-1.,0.));
#211=DIRECTION('ref_axis',(0.,0.,-1.));
#212=DIRECTION('center_axis',(0.,1.,0.));
#213=DIRECTION('ref_axis',(0.,0.,1.));
#214=DIRECTION('',(0.,-1.,0.));
#215=DIRECTION('center_axis',(0.,1.,0.));
#216=DIRECTION('ref_axis',(0.,0.,1.));
#217=DIRECTION('',(0.,1.,0.));
#218=DIRECTION('center_axis',(0.,0.,1.));
#219=DIRECTION('ref_axis',(1.,0.,0.));
#220=DIRECTION('',(1.,0.,0.));
#221=DIRECTION('',(0.,1.,0.));
#222=DIRECTION('center_axis',(0.,1.,0.));
#223=DIRECTION('ref_axis',(0.,0.,-1.));
#224=DIRECTION('center_axis',(0.,1.,0.));
#225=DIRECTION('ref_axis',(0.,0.,-1.));
#226=DIRECTION('',(0.,1.,0.));
#227=DIRECTION('center_axis',(1.77730473525906E-16,0.,-1.));
#228=DIRECTION('ref_axis',(-1.,0.,-1.77730473525906E-16));
#229=DIRECTION('',(-1.,0.,-1.77730473525906E-16));
#230=DIRECTION('center_axis',(0.,1.,0.));
#231=DIRECTION('ref_axis',(0.,0.,1.));
#232=CARTESIAN_POINT('',(0.,0.,0.));
#233=CARTESIAN_POINT('Origin',(-9.37,-27.4551925871956,4.17718530263481E-16));
#234=CARTESIAN_POINT('',(-8.1405,1.5,2.67148206308314E-16));
#235=CARTESIAN_POINT('Origin',(-9.37,1.5,4.17718530263481E-16));
#236=CARTESIAN_POINT('',(-8.1405,-1.5,2.67148206308314E-16));
#237=CARTESIAN_POINT('',(-8.1405,-27.4551925871956,2.67148206308314E-16));
#238=CARTESIAN_POINT('Origin',(-9.37,-1.5,4.17718530263481E-16));
#239=CARTESIAN_POINT('Origin',(9.37,-27.4551925871956,4.17718530263481E-16));
#240=CARTESIAN_POINT('',(10.5995,1.5,2.67148206308314E-16));
#241=CARTESIAN_POINT('Origin',(9.37,1.5,4.17718530263481E-16));
#242=CARTESIAN_POINT('',(10.5995,-1.5,2.67148206308314E-16));
#243=CARTESIAN_POINT('',(10.5995,-27.4551925871956,2.67148206308314E-16));
#244=CARTESIAN_POINT('Origin',(9.37,-1.5,4.17718530263481E-16));
#245=CARTESIAN_POINT('Origin',(0.,-1.5,-2.77555756156289E-16));
#246=CARTESIAN_POINT('',(-9.37,-1.5,-3.75));
#247=CARTESIAN_POINT('',(9.37,-1.5,-3.75));
#248=CARTESIAN_POINT('',(9.37,-1.5,-3.75));
#249=CARTESIAN_POINT('',(9.37,-1.5,3.75));
#250=CARTESIAN_POINT('Origin',(9.37,-1.5,4.17718530263481E-16));
#251=CARTESIAN_POINT('',(-9.37,-1.5,3.75));
#252=CARTESIAN_POINT('',(-9.37,-1.5,3.75));
#253=CARTESIAN_POINT('Origin',(-9.37,-1.5,4.17718530263481E-16));
#254=CARTESIAN_POINT('Origin',(9.37,0.,4.17718530263481E-16));
#255=CARTESIAN_POINT('',(9.37,1.5,-3.75));
#256=CARTESIAN_POINT('',(9.37,0.,-3.75));
#257=CARTESIAN_POINT('',(9.37,1.5,3.75));
#258=CARTESIAN_POINT('Origin',(9.37,1.5,4.17718530263481E-16));
#259=CARTESIAN_POINT('',(9.37,0.,3.75));
#260=CARTESIAN_POINT('Origin',(-9.37,0.,3.75));
#261=CARTESIAN_POINT('',(-9.37,1.5,3.75));
#262=CARTESIAN_POINT('',(-9.37,1.5,3.75));
#263=CARTESIAN_POINT('',(-9.37,0.,3.75));
#264=CARTESIAN_POINT('Origin',(-9.37,0.,4.17718530263481E-16));
#265=CARTESIAN_POINT('',(-9.37,1.5,-3.75));
#266=CARTESIAN_POINT('Origin',(-9.37,1.5,4.17718530263481E-16));
#267=CARTESIAN_POINT('',(-9.37,0.,-3.75));
#268=CARTESIAN_POINT('Origin',(9.37,0.,-3.75));
#269=CARTESIAN_POINT('',(9.37,1.5,-3.75));
#270=CARTESIAN_POINT('Origin',(0.,1.5,-2.77555756156289E-16));
#271=UNCERTAINTY_MEASURE_WITH_UNIT(LENGTH_MEASURE(0.01),#275,
'DISTANCE_ACCURACY_VALUE',
'Maximum model space distance between geometric entities at asserted c
onnectivities');
#272=UNCERTAINTY_MEASURE_WITH_UNIT(LENGTH_MEASURE(0.01),#275,
'DISTANCE_ACCURACY_VALUE',
'Maximum model space distance between geometric entities at asserted c
onnectivities');
#273=(
GEOMETRIC_REPRESENTATION_CONTEXT(3)
GLOBAL_UNCERTAINTY_ASSIGNED_CONTEXT((#271))
GLOBAL_UNIT_ASSIGNED_CONTEXT((#275,#277,#278))
REPRESENTATION_CONTEXT('','3D')
);
#274=(
GEOMETRIC_REPRESENTATION_CONTEXT(3)
GLOBAL_UNCERTAINTY_ASSIGNED_CONTEXT((#272))
GLOBAL_UNIT_ASSIGNED_CONTEXT((#275,#277,#278))
REPRESENTATION_CONTEXT('','3D')
);
#275=(
LENGTH_UNIT()
NAMED_UNIT(*)
SI_UNIT(.MILLI.,.METRE.)
);
#276=(
LENGTH_UNIT()
NAMED_UNIT(*)
SI_UNIT(.CENTI.,.METRE.)
);
#277=(
NAMED_UNIT(*)
PLANE_ANGLE_UNIT()
SI_UNIT($,.RADIAN.)
);
#278=(
NAMED_UNIT(*)
SI_UNIT($,.STERADIAN.)
SOLID_ANGLE_UNIT()
);
#279=SHAPE_DEFINITION_REPRESENTATION(#280,#281);
#280=PRODUCT_DEFINITION_SHAPE('',$,#283);
#281=SHAPE_REPRESENTATION('',(#171),#273);
#282=PRODUCT_DEFINITION_CONTEXT('part definition',#287,'design');
#283=PRODUCT_DEFINITION('00055023','00055023',#284,#282);
#284=PRODUCT_DEFINITION_FORMATION('',$,#289);
#285=PRODUCT_RELATED_PRODUCT_CATEGORY('00055023','00055023',(#289));
#286=APPLICATION_PROTOCOL_DEFINITION('international standard',
'automotive_design',2009,#287);
#287=APPLICATION_CONTEXT(
'Core Data for Automotive Mechanical Design Process');
#288=PRODUCT_CONTEXT('part definition',#287,'mechanical');
#289=PRODUCT('00055023','00055023','Gegenschraubblech',(#288));
#290=PRESENTATION_STYLE_ASSIGNMENT((#291));
#291=SURFACE_STYLE_USAGE(.BOTH.,#294);
#292=SURFACE_STYLE_RENDERING_WITH_PROPERTIES($,#298,(#293));
#293=SURFACE_STYLE_TRANSPARENT(0.);
#294=SURFACE_SIDE_STYLE('',(#295,#292));
#295=SURFACE_STYLE_FILL_AREA(#296);
#296=FILL_AREA_STYLE('',(#297));
#297=FILL_AREA_STYLE_COLOUR('',#298);
#298=COLOUR_RGB('',0.823529411764706,0.823529411764706,0.823529411764706);
ENDSEC;
END-ISO-10303-21;
