ISO-10303-21;
HEADER;
/* Generated by software containing ST-Developer
 * from STEP Tools, Inc. (www.steptools.com) 
 */

FILE_DESCRIPTION(
/* description */ ('F\X\FChrungsklotz'),
/* implementation_level */ '2;1');

FILE_NAME(
/* name */ '00055812.stp',
/* time_stamp */ '2023-08-24T13:46:08+02:00',
/* author */ ('MD28'),
/* organization */ (''),
/* preprocessor_version */ 'ST-DEVELOPER v19.2',
/* originating_system */ 'Autodesk Inventor 2023',
/* authorisation */ '');

FILE_SCHEMA (('AUTOMOTIVE_DESIGN { 1 0 10303 214 3 1 1 }'));
ENDSEC;

DATA;
#10=MECHANICAL_DESIGN_GEOMETRIC_PRESENTATION_REPRESENTATION('',(#13),#471);
#11=SHAPE_REPRESENTATION_RELATIONSHIP('SRR','None',#478,#12);
#12=ADVANCED_BREP_SHAPE_REPRESENTATION('',(#14),#470);
#13=STYLED_ITEM('',(#487),#14);
#14=MANIFOLD_SOLID_BREP('Volumenk\X\F6rper1',#276);
#15=FACE_BOUND('',#56,.T.);
#16=FACE_BOUND('',#60,.T.);
#17=FACE_BOUND('',#63,.T.);
#18=FACE_BOUND('',#65,.T.);
#19=PLANE('',#307);
#20=PLANE('',#308);
#21=PLANE('',#309);
#22=PLANE('',#310);
#23=PLANE('',#311);
#24=PLANE('',#315);
#25=PLANE('',#316);
#26=PLANE('',#317);
#27=PLANE('',#318);
#28=PLANE('',#319);
#29=CYLINDRICAL_SURFACE('',#301,4.);
#30=CYLINDRICAL_SURFACE('',#305,4.);
#31=CYLINDRICAL_SURFACE('',#313,8.2);
#32=FACE_OUTER_BOUND('',#47,.T.);
#33=FACE_OUTER_BOUND('',#48,.T.);
#34=FACE_OUTER_BOUND('',#49,.T.);
#35=FACE_OUTER_BOUND('',#50,.T.);
#36=FACE_OUTER_BOUND('',#51,.T.);
#37=FACE_OUTER_BOUND('',#52,.T.);
#38=FACE_OUTER_BOUND('',#53,.T.);
#39=FACE_OUTER_BOUND('',#54,.T.);
#40=FACE_OUTER_BOUND('',#55,.T.);
#41=FACE_OUTER_BOUND('',#57,.T.);
#42=FACE_OUTER_BOUND('',#58,.T.);
#43=FACE_OUTER_BOUND('',#59,.T.);
#44=FACE_OUTER_BOUND('',#61,.T.);
#45=FACE_OUTER_BOUND('',#62,.T.);
#46=FACE_OUTER_BOUND('',#64,.T.);
#47=EDGE_LOOP('',(#189,#190,#191));
#48=EDGE_LOOP('',(#192,#193,#194,#195));
#49=EDGE_LOOP('',(#196,#197,#198));
#50=EDGE_LOOP('',(#199,#200,#201,#202));
#51=EDGE_LOOP('',(#203,#204,#205,#206));
#52=EDGE_LOOP('',(#207,#208,#209,#210));
#53=EDGE_LOOP('',(#211,#212,#213,#214));
#54=EDGE_LOOP('',(#215,#216,#217,#218));
#55=EDGE_LOOP('',(#219,#220,#221,#222));
#56=EDGE_LOOP('',(#223));
#57=EDGE_LOOP('',(#224,#225,#226,#227));
#58=EDGE_LOOP('',(#228,#229,#230,#231,#232,#233,#234,#235));
#59=EDGE_LOOP('',(#236,#237,#238,#239));
#60=EDGE_LOOP('',(#240));
#61=EDGE_LOOP('',(#241,#242,#243,#244,#245,#246,#247,#248));
#62=EDGE_LOOP('',(#249,#250,#251,#252));
#63=EDGE_LOOP('',(#253));
#64=EDGE_LOOP('',(#254,#255,#256,#257));
#65=EDGE_LOOP('',(#258));
#66=LINE('',#398,#95);
#67=LINE('',#402,#96);
#68=LINE('',#407,#97);
#69=LINE('',#411,#98);
#70=LINE('',#415,#99);
#71=LINE('',#417,#100);
#72=LINE('',#419,#101);
#73=LINE('',#420,#102);
#74=LINE('',#423,#103);
#75=LINE('',#425,#104);
#76=LINE('',#426,#105);
#77=LINE('',#430,#106);
#78=LINE('',#432,#107);
#79=LINE('',#434,#108);
#80=LINE('',#435,#109);
#81=LINE('',#438,#110);
#82=LINE('',#440,#111);
#83=LINE('',#441,#112);
#84=LINE('',#443,#113);
#85=LINE('',#444,#114);
#86=LINE('',#449,#115);
#87=LINE('',#454,#116);
#88=LINE('',#455,#117);
#89=LINE('',#456,#118);
#90=LINE('',#459,#119);
#91=LINE('',#460,#120);
#92=LINE('',#463,#121);
#93=LINE('',#464,#122);
#94=LINE('',#466,#123);
#95=VECTOR('',#326,2.);
#96=VECTOR('',#331,4.);
#97=VECTOR('',#336,2.);
#98=VECTOR('',#341,4.);
#99=VECTOR('',#344,10.);
#100=VECTOR('',#345,10.);
#101=VECTOR('',#346,10.);
#102=VECTOR('',#347,10.);
#103=VECTOR('',#350,10.);
#104=VECTOR('',#351,10.);
#105=VECTOR('',#352,10.);
#106=VECTOR('',#355,10.);
#107=VECTOR('',#356,10.);
#108=VECTOR('',#357,10.);
#109=VECTOR('',#358,10.);
#110=VECTOR('',#361,10.);
#111=VECTOR('',#362,10.);
#112=VECTOR('',#363,10.);
#113=VECTOR('',#366,10.);
#114=VECTOR('',#367,10.);
#115=VECTOR('',#372,8.2);
#116=VECTOR('',#377,10.);
#117=VECTOR('',#378,10.);
#118=VECTOR('',#379,10.);
#119=VECTOR('',#382,10.);
#120=VECTOR('',#383,10.);
#121=VECTOR('',#386,10.);
#122=VECTOR('',#387,10.);
#123=VECTOR('',#390,10.);
#124=CIRCLE('',#300,4.);
#125=CIRCLE('',#302,4.);
#126=CIRCLE('',#304,4.);
#127=CIRCLE('',#306,4.);
#128=CIRCLE('',#312,8.2);
#129=CIRCLE('',#314,8.2);
#130=VERTEX_POINT('',#395);
#131=VERTEX_POINT('',#397);
#132=VERTEX_POINT('',#400);
#133=VERTEX_POINT('',#404);
#134=VERTEX_POINT('',#406);
#135=VERTEX_POINT('',#409);
#136=VERTEX_POINT('',#413);
#137=VERTEX_POINT('',#414);
#138=VERTEX_POINT('',#416);
#139=VERTEX_POINT('',#418);
#140=VERTEX_POINT('',#422);
#141=VERTEX_POINT('',#424);
#142=VERTEX_POINT('',#428);
#143=VERTEX_POINT('',#429);
#144=VERTEX_POINT('',#431);
#145=VERTEX_POINT('',#433);
#146=VERTEX_POINT('',#437);
#147=VERTEX_POINT('',#439);
#148=VERTEX_POINT('',#445);
#149=VERTEX_POINT('',#448);
#150=VERTEX_POINT('',#452);
#151=VERTEX_POINT('',#453);
#152=VERTEX_POINT('',#458);
#153=VERTEX_POINT('',#462);
#154=EDGE_CURVE('',#130,#130,#124,.T.);
#155=EDGE_CURVE('',#130,#131,#66,.T.);
#156=EDGE_CURVE('',#132,#132,#125,.T.);
#157=EDGE_CURVE('',#132,#130,#67,.T.);
#158=EDGE_CURVE('',#133,#133,#126,.T.);
#159=EDGE_CURVE('',#133,#134,#68,.T.);
#160=EDGE_CURVE('',#135,#135,#127,.T.);
#161=EDGE_CURVE('',#135,#133,#69,.T.);
#162=EDGE_CURVE('',#136,#137,#70,.T.);
#163=EDGE_CURVE('',#136,#138,#71,.T.);
#164=EDGE_CURVE('',#139,#138,#72,.T.);
#165=EDGE_CURVE('',#137,#139,#73,.T.);
#166=EDGE_CURVE('',#140,#139,#74,.T.);
#167=EDGE_CURVE('',#138,#141,#75,.T.);
#168=EDGE_CURVE('',#141,#140,#76,.T.);
#169=EDGE_CURVE('',#142,#143,#77,.T.);
#170=EDGE_CURVE('',#142,#144,#78,.T.);
#171=EDGE_CURVE('',#145,#144,#79,.T.);
#172=EDGE_CURVE('',#143,#145,#80,.T.);
#173=EDGE_CURVE('',#146,#145,#81,.T.);
#174=EDGE_CURVE('',#144,#147,#82,.T.);
#175=EDGE_CURVE('',#147,#146,#83,.T.);
#176=EDGE_CURVE('',#137,#142,#84,.T.);
#177=EDGE_CURVE('',#143,#136,#85,.T.);
#178=EDGE_CURVE('',#148,#148,#128,.T.);
#179=EDGE_CURVE('',#148,#149,#86,.T.);
#180=EDGE_CURVE('',#149,#149,#129,.T.);
#181=EDGE_CURVE('',#150,#151,#87,.T.);
#182=EDGE_CURVE('',#151,#147,#88,.T.);
#183=EDGE_CURVE('',#150,#140,#89,.T.);
#184=EDGE_CURVE('',#152,#150,#90,.T.);
#185=EDGE_CURVE('',#152,#141,#91,.T.);
#186=EDGE_CURVE('',#153,#152,#92,.T.);
#187=EDGE_CURVE('',#153,#146,#93,.T.);
#188=EDGE_CURVE('',#151,#153,#94,.T.);
#189=ORIENTED_EDGE('',*,*,#154,.F.);
#190=ORIENTED_EDGE('',*,*,#155,.T.);
#191=ORIENTED_EDGE('',*,*,#155,.F.);
#192=ORIENTED_EDGE('',*,*,#156,.F.);
#193=ORIENTED_EDGE('',*,*,#157,.T.);
#194=ORIENTED_EDGE('',*,*,#154,.T.);
#195=ORIENTED_EDGE('',*,*,#157,.F.);
#196=ORIENTED_EDGE('',*,*,#158,.T.);
#197=ORIENTED_EDGE('',*,*,#159,.T.);
#198=ORIENTED_EDGE('',*,*,#159,.F.);
#199=ORIENTED_EDGE('',*,*,#160,.F.);
#200=ORIENTED_EDGE('',*,*,#161,.T.);
#201=ORIENTED_EDGE('',*,*,#158,.F.);
#202=ORIENTED_EDGE('',*,*,#161,.F.);
#203=ORIENTED_EDGE('',*,*,#162,.F.);
#204=ORIENTED_EDGE('',*,*,#163,.T.);
#205=ORIENTED_EDGE('',*,*,#164,.F.);
#206=ORIENTED_EDGE('',*,*,#165,.F.);
#207=ORIENTED_EDGE('',*,*,#166,.T.);
#208=ORIENTED_EDGE('',*,*,#164,.T.);
#209=ORIENTED_EDGE('',*,*,#167,.T.);
#210=ORIENTED_EDGE('',*,*,#168,.T.);
#211=ORIENTED_EDGE('',*,*,#169,.F.);
#212=ORIENTED_EDGE('',*,*,#170,.T.);
#213=ORIENTED_EDGE('',*,*,#171,.F.);
#214=ORIENTED_EDGE('',*,*,#172,.F.);
#215=ORIENTED_EDGE('',*,*,#173,.T.);
#216=ORIENTED_EDGE('',*,*,#171,.T.);
#217=ORIENTED_EDGE('',*,*,#174,.T.);
#218=ORIENTED_EDGE('',*,*,#175,.T.);
#219=ORIENTED_EDGE('',*,*,#162,.T.);
#220=ORIENTED_EDGE('',*,*,#176,.T.);
#221=ORIENTED_EDGE('',*,*,#169,.T.);
#222=ORIENTED_EDGE('',*,*,#177,.T.);
#223=ORIENTED_EDGE('',*,*,#178,.T.);
#224=ORIENTED_EDGE('',*,*,#178,.F.);
#225=ORIENTED_EDGE('',*,*,#179,.T.);
#226=ORIENTED_EDGE('',*,*,#180,.T.);
#227=ORIENTED_EDGE('',*,*,#179,.F.);
#228=ORIENTED_EDGE('',*,*,#181,.T.);
#229=ORIENTED_EDGE('',*,*,#182,.T.);
#230=ORIENTED_EDGE('',*,*,#174,.F.);
#231=ORIENTED_EDGE('',*,*,#170,.F.);
#232=ORIENTED_EDGE('',*,*,#176,.F.);
#233=ORIENTED_EDGE('',*,*,#165,.T.);
#234=ORIENTED_EDGE('',*,*,#166,.F.);
#235=ORIENTED_EDGE('',*,*,#183,.F.);
#236=ORIENTED_EDGE('',*,*,#184,.T.);
#237=ORIENTED_EDGE('',*,*,#183,.T.);
#238=ORIENTED_EDGE('',*,*,#168,.F.);
#239=ORIENTED_EDGE('',*,*,#185,.F.);
#240=ORIENTED_EDGE('',*,*,#156,.T.);
#241=ORIENTED_EDGE('',*,*,#186,.T.);
#242=ORIENTED_EDGE('',*,*,#185,.T.);
#243=ORIENTED_EDGE('',*,*,#167,.F.);
#244=ORIENTED_EDGE('',*,*,#163,.F.);
#245=ORIENTED_EDGE('',*,*,#177,.F.);
#246=ORIENTED_EDGE('',*,*,#172,.T.);
#247=ORIENTED_EDGE('',*,*,#173,.F.);
#248=ORIENTED_EDGE('',*,*,#187,.F.);
#249=ORIENTED_EDGE('',*,*,#188,.T.);
#250=ORIENTED_EDGE('',*,*,#187,.T.);
#251=ORIENTED_EDGE('',*,*,#175,.F.);
#252=ORIENTED_EDGE('',*,*,#182,.F.);
#253=ORIENTED_EDGE('',*,*,#160,.T.);
#254=ORIENTED_EDGE('',*,*,#188,.F.);
#255=ORIENTED_EDGE('',*,*,#181,.F.);
#256=ORIENTED_EDGE('',*,*,#184,.F.);
#257=ORIENTED_EDGE('',*,*,#186,.F.);
#258=ORIENTED_EDGE('',*,*,#180,.F.);
#259=CONICAL_SURFACE('',#299,2.,1.02974425867665);
#260=CONICAL_SURFACE('',#303,2.,1.02974425867665);
#261=ADVANCED_FACE('',(#32),#259,.F.);
#262=ADVANCED_FACE('',(#33),#29,.F.);
#263=ADVANCED_FACE('',(#34),#260,.F.);
#264=ADVANCED_FACE('',(#35),#30,.F.);
#265=ADVANCED_FACE('',(#36),#19,.T.);
#266=ADVANCED_FACE('',(#37),#20,.T.);
#267=ADVANCED_FACE('',(#38),#21,.T.);
#268=ADVANCED_FACE('',(#39),#22,.T.);
#269=ADVANCED_FACE('',(#40,#15),#23,.T.);
#270=ADVANCED_FACE('',(#41),#31,.F.);
#271=ADVANCED_FACE('',(#42),#24,.T.);
#272=ADVANCED_FACE('',(#43,#16),#25,.T.);
#273=ADVANCED_FACE('',(#44),#26,.T.);
#274=ADVANCED_FACE('',(#45,#17),#27,.T.);
#275=ADVANCED_FACE('',(#46,#18),#28,.F.);
#276=CLOSED_SHELL('',(#261,#262,#263,#264,#265,#266,#267,#268,#269,#270,
#271,#272,#273,#274,#275));
#277=DERIVED_UNIT_ELEMENT(#280,1.);
#278=DERIVED_UNIT_ELEMENT(#473,-3.);
#279=DIMENSIONAL_EXPONENTS(0.,1.,0.,0.,0.,0.,0.);
#280=(
CONVERSION_BASED_UNIT('gram',#282)
MASS_UNIT()
NAMED_UNIT(#279)
);
#281=(
MASS_UNIT()
NAMED_UNIT(*)
SI_UNIT(.KILO.,.GRAM.)
);
#282=MASS_MEASURE_WITH_UNIT(MASS_MEASURE(0.001),#281);
#283=DERIVED_UNIT((#277,#278));
#284=MEASURE_REPRESENTATION_ITEM('density measure',
POSITIVE_RATIO_MEASURE(7.76),#283);
#285=PROPERTY_DEFINITION_REPRESENTATION(#290,#287);
#286=PROPERTY_DEFINITION_REPRESENTATION(#291,#288);
#287=REPRESENTATION('material name',(#289),#470);
#288=REPRESENTATION('density',(#284),#470);
#289=DESCRIPTIVE_REPRESENTATION_ITEM('16MnCr5 (1.7131)',
'16MnCr5 (1.7131)');
#290=PROPERTY_DEFINITION('material property','material name',#480);
#291=PROPERTY_DEFINITION('material property','density of part',#480);
#292=DATE_TIME_ROLE('creation_date');
#293=APPLIED_DATE_AND_TIME_ASSIGNMENT(#294,#292,(#480));
#294=DATE_AND_TIME(#295,#296);
#295=CALENDAR_DATE(2023,27,7);
#296=LOCAL_TIME(0,0,0.,#297);
#297=COORDINATED_UNIVERSAL_TIME_OFFSET(0,0,.BEHIND.);
#298=AXIS2_PLACEMENT_3D('',#393,#320,#321);
#299=AXIS2_PLACEMENT_3D('',#394,#322,#323);
#300=AXIS2_PLACEMENT_3D('',#396,#324,#325);
#301=AXIS2_PLACEMENT_3D('',#399,#327,#328);
#302=AXIS2_PLACEMENT_3D('',#401,#329,#330);
#303=AXIS2_PLACEMENT_3D('',#403,#332,#333);
#304=AXIS2_PLACEMENT_3D('',#405,#334,#335);
#305=AXIS2_PLACEMENT_3D('',#408,#337,#338);
#306=AXIS2_PLACEMENT_3D('',#410,#339,#340);
#307=AXIS2_PLACEMENT_3D('',#412,#342,#343);
#308=AXIS2_PLACEMENT_3D('',#421,#348,#349);
#309=AXIS2_PLACEMENT_3D('',#427,#353,#354);
#310=AXIS2_PLACEMENT_3D('',#436,#359,#360);
#311=AXIS2_PLACEMENT_3D('',#442,#364,#365);
#312=AXIS2_PLACEMENT_3D('',#446,#368,#369);
#313=AXIS2_PLACEMENT_3D('',#447,#370,#371);
#314=AXIS2_PLACEMENT_3D('',#450,#373,#374);
#315=AXIS2_PLACEMENT_3D('',#451,#375,#376);
#316=AXIS2_PLACEMENT_3D('',#457,#380,#381);
#317=AXIS2_PLACEMENT_3D('',#461,#384,#385);
#318=AXIS2_PLACEMENT_3D('',#465,#388,#389);
#319=AXIS2_PLACEMENT_3D('',#467,#391,#392);
#320=DIRECTION('axis',(0.,0.,1.));
#321=DIRECTION('refdir',(1.,0.,0.));
#322=DIRECTION('center_axis',(1.,1.26882631385732E-16,0.));
#323=DIRECTION('ref_axis',(0.,0.,1.));
#324=DIRECTION('center_axis',(-1.,-1.26882631385732E-16,0.));
#325=DIRECTION('ref_axis',(0.,0.,1.));
#326=DIRECTION('',(-0.515038074910054,3.96233329054324E-17,0.857167300702112));
#327=DIRECTION('center_axis',(-1.,-1.26882631385732E-16,0.));
#328=DIRECTION('ref_axis',(0.,0.,1.));
#329=DIRECTION('center_axis',(-1.,-6.34413156928661E-16,0.));
#330=DIRECTION('ref_axis',(0.,0.,1.));
#331=DIRECTION('',(-1.,-1.26882631385732E-16,0.));
#332=DIRECTION('center_axis',(-1.,1.26882631385732E-16,0.));
#333=DIRECTION('ref_axis',(0.,0.,1.));
#334=DIRECTION('center_axis',(-1.,1.26882631385732E-16,0.));
#335=DIRECTION('ref_axis',(0.,0.,1.));
#336=DIRECTION('',(0.515038074910054,3.96233329054324E-17,0.857167300702112));
#337=DIRECTION('center_axis',(-1.,1.26882631385732E-16,0.));
#338=DIRECTION('ref_axis',(0.,0.,1.));
#339=DIRECTION('center_axis',(1.,-1.26882631385732E-16,0.));
#340=DIRECTION('ref_axis',(0.,0.,1.));
#341=DIRECTION('',(1.,-1.26882631385732E-16,0.));
#342=DIRECTION('center_axis',(-1.,-1.26882631385732E-16,0.));
#343=DIRECTION('ref_axis',(1.26882631385732E-16,-1.,0.));
#344=DIRECTION('',(-1.26882631385732E-16,1.,0.));
#345=DIRECTION('',(0.,0.,1.));
#346=DIRECTION('',(1.26882631385732E-16,-1.,0.));
#347=DIRECTION('',(0.,0.,1.));
#348=DIRECTION('center_axis',(0.,0.,1.));
#349=DIRECTION('ref_axis',(1.,0.,0.));
#350=DIRECTION('',(-1.,-1.98845914858237E-16,0.));
#351=DIRECTION('',(1.,0.,0.));
#352=DIRECTION('',(-7.61295788314393E-16,1.,0.));
#353=DIRECTION('center_axis',(1.,8.88178419700125E-16,0.));
#354=DIRECTION('ref_axis',(-8.88178419700125E-16,1.,0.));
#355=DIRECTION('',(8.88178419700125E-16,-1.,0.));
#356=DIRECTION('',(0.,0.,1.));
#357=DIRECTION('',(-8.88178419700125E-16,1.,0.));
#358=DIRECTION('',(0.,0.,1.));
#359=DIRECTION('center_axis',(0.,0.,1.));
#360=DIRECTION('ref_axis',(1.,0.,0.));
#361=DIRECTION('',(1.,0.,0.));
#362=DIRECTION('',(-1.,-1.98845914858237E-16,0.));
#363=DIRECTION('',(-1.26882631385732E-16,-1.,0.));
#364=DIRECTION('center_axis',(0.,0.,1.));
#365=DIRECTION('ref_axis',(1.,0.,0.));
#366=DIRECTION('',(-1.,-1.98845914858237E-16,0.));
#367=DIRECTION('',(1.,0.,0.));
#368=DIRECTION('center_axis',(0.,0.,-1.));
#369=DIRECTION('ref_axis',(-1.,0.,0.));
#370=DIRECTION('center_axis',(0.,0.,1.));
#371=DIRECTION('ref_axis',(-1.,0.,0.));
#372=DIRECTION('',(0.,0.,-1.));
#373=DIRECTION('center_axis',(0.,0.,-1.));
#374=DIRECTION('ref_axis',(-1.,0.,0.));
#375=DIRECTION('center_axis',(-1.98845914858237E-16,1.,0.));
#376=DIRECTION('ref_axis',(-1.,-1.98845914858237E-16,0.));
#377=DIRECTION('',(-1.,-1.98845914858237E-16,0.));
#378=DIRECTION('',(0.,0.,1.));
#379=DIRECTION('',(0.,0.,1.));
#380=DIRECTION('center_axis',(1.,6.34413156928661E-16,0.));
#381=DIRECTION('ref_axis',(-6.34413156928661E-16,1.,0.));
#382=DIRECTION('',(-6.34413156928661E-16,1.,0.));
#383=DIRECTION('',(0.,0.,1.));
#384=DIRECTION('center_axis',(0.,-1.,0.));
#385=DIRECTION('ref_axis',(1.,0.,0.));
#386=DIRECTION('',(1.,0.,0.));
#387=DIRECTION('',(0.,0.,1.));
#388=DIRECTION('center_axis',(-1.,1.26882631385732E-16,0.));
#389=DIRECTION('ref_axis',(-1.26882631385732E-16,-1.,0.));
#390=DIRECTION('',(-1.26882631385732E-16,-1.,0.));
#391=DIRECTION('center_axis',(0.,0.,1.));
#392=DIRECTION('ref_axis',(1.,0.,0.));
#393=CARTESIAN_POINT('',(0.,0.,0.));
#394=CARTESIAN_POINT('Origin',(12.2982787619449,-4.91057622984151E-15,7.5));
#395=CARTESIAN_POINT('',(13.5,-5.2479573966239E-15,3.5));
#396=CARTESIAN_POINT('Origin',(13.5,-4.75809867696496E-15,7.5));
#397=CARTESIAN_POINT('',(11.0965575238898,-5.06305378271806E-15,7.5));
#398=CARTESIAN_POINT('',(12.2982787619449,-5.15550558967098E-15,5.5));
#399=CARTESIAN_POINT('Origin',(23.5,-3.48927236310763E-15,7.5));
#400=CARTESIAN_POINT('',(33.5,-2.71030476890925E-15,3.5));
#401=CARTESIAN_POINT('Origin',(33.5,-2.22044604925031E-15,7.5));
#402=CARTESIAN_POINT('',(23.5,-3.97913108276658E-15,3.5));
#403=CARTESIAN_POINT('Origin',(-12.2982787619449,-4.91057622984151E-15,
7.5));
#404=CARTESIAN_POINT('',(-13.5,-5.2479573966239E-15,3.5));
#405=CARTESIAN_POINT('Origin',(-13.5,-4.75809867696496E-15,7.5));
#406=CARTESIAN_POINT('',(-11.0965575238898,-5.06305378271806E-15,7.5));
#407=CARTESIAN_POINT('',(-12.2982787619449,-5.15550558967098E-15,5.5));
#408=CARTESIAN_POINT('Origin',(-23.5,-3.48927236310763E-15,7.5));
#409=CARTESIAN_POINT('',(-33.5,-2.71030476890925E-15,3.5));
#410=CARTESIAN_POINT('Origin',(-33.5,-2.22044604925031E-15,7.5));
#411=CARTESIAN_POINT('',(-23.5,-3.97913108276658E-15,3.5));
#412=CARTESIAN_POINT('Origin',(10.65,22.5,5.));
#413=CARTESIAN_POINT('',(10.65,-12.5,5.));
#414=CARTESIAN_POINT('',(10.65,22.5,5.));
#415=CARTESIAN_POINT('',(10.65,13.75,5.));
#416=CARTESIAN_POINT('',(10.65,-12.5,15.));
#417=CARTESIAN_POINT('',(10.65,-12.5,5.));
#418=CARTESIAN_POINT('',(10.65,22.5,15.));
#419=CARTESIAN_POINT('',(10.65,22.5,15.));
#420=CARTESIAN_POINT('',(10.65,22.5,5.));
#421=CARTESIAN_POINT('Origin',(22.075,5.,15.));
#422=CARTESIAN_POINT('',(33.5,22.5,15.));
#423=CARTESIAN_POINT('',(33.5,22.5,15.));
#424=CARTESIAN_POINT('',(33.5,-12.5,15.));
#425=CARTESIAN_POINT('',(-33.5,-12.5,15.));
#426=CARTESIAN_POINT('',(33.5,-12.5,15.));
#427=CARTESIAN_POINT('Origin',(-10.65,-12.5,5.));
#428=CARTESIAN_POINT('',(-10.65,22.5,5.));
#429=CARTESIAN_POINT('',(-10.65,-12.5,5.));
#430=CARTESIAN_POINT('',(-10.65,-3.75000000000001,5.));
#431=CARTESIAN_POINT('',(-10.65,22.5,15.));
#432=CARTESIAN_POINT('',(-10.65,22.5,5.));
#433=CARTESIAN_POINT('',(-10.65,-12.5,15.));
#434=CARTESIAN_POINT('',(-10.65,-12.5,15.));
#435=CARTESIAN_POINT('',(-10.65,-12.5,5.));
#436=CARTESIAN_POINT('Origin',(-22.075,5.,15.));
#437=CARTESIAN_POINT('',(-33.5,-12.5,15.));
#438=CARTESIAN_POINT('',(-33.5,-12.5,15.));
#439=CARTESIAN_POINT('',(-33.5,22.5,15.));
#440=CARTESIAN_POINT('',(33.5,22.5,15.));
#441=CARTESIAN_POINT('',(-33.5,22.5,15.));
#442=CARTESIAN_POINT('Origin',(0.,5.,5.));
#443=CARTESIAN_POINT('',(33.5,22.5,5.));
#444=CARTESIAN_POINT('',(-33.5,-12.5,5.));
#445=CARTESIAN_POINT('',(8.2,0.,5.));
#446=CARTESIAN_POINT('Origin',(0.,0.,5.));
#447=CARTESIAN_POINT('Origin',(0.,0.,0.));
#448=CARTESIAN_POINT('',(8.2,1.00421037530083E-15,0.));
#449=CARTESIAN_POINT('',(8.2,1.00421037530083E-15,0.));
#450=CARTESIAN_POINT('Origin',(0.,0.,0.));
#451=CARTESIAN_POINT('Origin',(33.5,22.5,0.));
#452=CARTESIAN_POINT('',(33.5,22.5,0.));
#453=CARTESIAN_POINT('',(-33.5,22.5,0.));
#454=CARTESIAN_POINT('',(33.5,22.5,0.));
#455=CARTESIAN_POINT('',(-33.5,22.5,0.));
#456=CARTESIAN_POINT('',(33.5,22.5,0.));
#457=CARTESIAN_POINT('Origin',(33.5,-12.5,0.));
#458=CARTESIAN_POINT('',(33.5,-12.5,0.));
#459=CARTESIAN_POINT('',(33.5,-12.5,0.));
#460=CARTESIAN_POINT('',(33.5,-12.5,0.));
#461=CARTESIAN_POINT('Origin',(-33.5,-12.5,0.));
#462=CARTESIAN_POINT('',(-33.5,-12.5,0.));
#463=CARTESIAN_POINT('',(-33.5,-12.5,0.));
#464=CARTESIAN_POINT('',(-33.5,-12.5,0.));
#465=CARTESIAN_POINT('Origin',(-33.5,22.5,0.));
#466=CARTESIAN_POINT('',(-33.5,22.5,0.));
#467=CARTESIAN_POINT('Origin',(0.,5.,0.));
#468=UNCERTAINTY_MEASURE_WITH_UNIT(LENGTH_MEASURE(0.01),#472,
'DISTANCE_ACCURACY_VALUE',
'Maximum model space distance between geometric entities at asserted c
onnectivities');
#469=UNCERTAINTY_MEASURE_WITH_UNIT(LENGTH_MEASURE(0.01),#472,
'DISTANCE_ACCURACY_VALUE',
'Maximum model space distance between geometric entities at asserted c
onnectivities');
#470=(
GEOMETRIC_REPRESENTATION_CONTEXT(3)
GLOBAL_UNCERTAINTY_ASSIGNED_CONTEXT((#468))
GLOBAL_UNIT_ASSIGNED_CONTEXT((#472,#474,#475))
REPRESENTATION_CONTEXT('','3D')
);
#471=(
GEOMETRIC_REPRESENTATION_CONTEXT(3)
GLOBAL_UNCERTAINTY_ASSIGNED_CONTEXT((#469))
GLOBAL_UNIT_ASSIGNED_CONTEXT((#472,#474,#475))
REPRESENTATION_CONTEXT('','3D')
);
#472=(
LENGTH_UNIT()
NAMED_UNIT(*)
SI_UNIT(.MILLI.,.METRE.)
);
#473=(
LENGTH_UNIT()
NAMED_UNIT(*)
SI_UNIT(.CENTI.,.METRE.)
);
#474=(
NAMED_UNIT(*)
PLANE_ANGLE_UNIT()
SI_UNIT($,.RADIAN.)
);
#475=(
NAMED_UNIT(*)
SI_UNIT($,.STERADIAN.)
SOLID_ANGLE_UNIT()
);
#476=SHAPE_DEFINITION_REPRESENTATION(#477,#478);
#477=PRODUCT_DEFINITION_SHAPE('',$,#480);
#478=SHAPE_REPRESENTATION('',(#298),#470);
#479=PRODUCT_DEFINITION_CONTEXT('part definition',#484,'design');
#480=PRODUCT_DEFINITION('00055812','00055812',#481,#479);
#481=PRODUCT_DEFINITION_FORMATION('',$,#486);
#482=PRODUCT_RELATED_PRODUCT_CATEGORY('00055812','00055812',(#486));
#483=APPLICATION_PROTOCOL_DEFINITION('international standard',
'automotive_design',2009,#484);
#484=APPLICATION_CONTEXT(
'Core Data for Automotive Mechanical Design Process');
#485=PRODUCT_CONTEXT('part definition',#484,'mechanical');
#486=PRODUCT('00055812','00055812','F\X\FChrungsklotz',(#485));
#487=PRESENTATION_STYLE_ASSIGNMENT((#488));
#488=SURFACE_STYLE_USAGE(.BOTH.,#491);
#489=SURFACE_STYLE_RENDERING_WITH_PROPERTIES($,#495,(#490));
#490=SURFACE_STYLE_TRANSPARENT(0.);
#491=SURFACE_SIDE_STYLE('',(#492,#489));
#492=SURFACE_STYLE_FILL_AREA(#493);
#493=FILL_AREA_STYLE('',(#494));
#494=FILL_AREA_STYLE_COLOUR('',#495);
#495=COLOUR_RGB('',0.301960784313725,0.411764705882353,0.509803921568627);
ENDSEC;
END-ISO-10303-21;
