ISO-10303-21;
HEADER;
/* Generated by software containing ST-Developer
 * from STEP Tools, Inc. (www.steptools.com) 
 */

FILE_DESCRIPTION(
/* description */ ('Distanzplatte'),
/* implementation_level */ '2;1');

FILE_NAME(
/* name */ '00039670.stp',
/* time_stamp */ '2023-08-24T13:43:22+02:00',
/* author */ ('Pflugbeil'),
/* organization */ (''),
/* preprocessor_version */ 'ST-DEVELOPER v19.2',
/* originating_system */ 'Autodesk Inventor 2023',
/* authorisation */ '');

FILE_SCHEMA (('AUTOMOTIVE_DESIGN { 1 0 10303 214 3 1 1 }'));
ENDSEC;

DATA;
#10=MECHANICAL_DESIGN_GEOMETRIC_PRESENTATION_REPRESENTATION('',(#13),#456);
#11=SHAPE_REPRESENTATION_RELATIONSHIP('SRR','None',#463,#12);
#12=ADVANCED_BREP_SHAPE_REPRESENTATION('',(#14),#455);
#13=STYLED_ITEM('',(#472),#14);
#14=MANIFOLD_SOLID_BREP('Volumenk\X\F6rper1',#261);
#15=FACE_BOUND('',#61,.T.);
#16=FACE_BOUND('',#62,.T.);
#17=FACE_BOUND('',#65,.T.);
#18=FACE_BOUND('',#66,.T.);
#19=FACE_BOUND('',#68,.T.);
#20=FACE_BOUND('',#69,.T.);
#21=FACE_BOUND('',#71,.T.);
#22=FACE_BOUND('',#72,.T.);
#23=FACE_BOUND('',#73,.T.);
#24=FACE_BOUND('',#74,.T.);
#25=PLANE('',#304);
#26=PLANE('',#305);
#27=PLANE('',#306);
#28=PLANE('',#307);
#29=PLANE('',#308);
#30=PLANE('',#309);
#31=CYLINDRICAL_SURFACE('',#286,3.);
#32=CYLINDRICAL_SURFACE('',#290,3.);
#33=CYLINDRICAL_SURFACE('',#292,4.188);
#34=CYLINDRICAL_SURFACE('',#295,11.688);
#35=CYLINDRICAL_SURFACE('',#298,4.5);
#36=CYLINDRICAL_SURFACE('',#301,4.5);
#37=FACE_OUTER_BOUND('',#51,.T.);
#38=FACE_OUTER_BOUND('',#52,.T.);
#39=FACE_OUTER_BOUND('',#53,.T.);
#40=FACE_OUTER_BOUND('',#54,.T.);
#41=FACE_OUTER_BOUND('',#55,.T.);
#42=FACE_OUTER_BOUND('',#56,.T.);
#43=FACE_OUTER_BOUND('',#57,.T.);
#44=FACE_OUTER_BOUND('',#58,.T.);
#45=FACE_OUTER_BOUND('',#59,.T.);
#46=FACE_OUTER_BOUND('',#60,.T.);
#47=FACE_OUTER_BOUND('',#63,.T.);
#48=FACE_OUTER_BOUND('',#64,.T.);
#49=FACE_OUTER_BOUND('',#67,.T.);
#50=FACE_OUTER_BOUND('',#70,.T.);
#51=EDGE_LOOP('',(#181,#182,#183));
#52=EDGE_LOOP('',(#184,#185,#186,#187));
#53=EDGE_LOOP('',(#188,#189,#190));
#54=EDGE_LOOP('',(#191,#192,#193,#194));
#55=EDGE_LOOP('',(#195,#196,#197,#198));
#56=EDGE_LOOP('',(#199,#200,#201,#202));
#57=EDGE_LOOP('',(#203,#204,#205,#206));
#58=EDGE_LOOP('',(#207,#208,#209,#210));
#59=EDGE_LOOP('',(#211,#212,#213,#214));
#60=EDGE_LOOP('',(#215,#216,#217,#218));
#61=EDGE_LOOP('',(#219));
#62=EDGE_LOOP('',(#220));
#63=EDGE_LOOP('',(#221,#222,#223,#224));
#64=EDGE_LOOP('',(#225,#226,#227,#228));
#65=EDGE_LOOP('',(#229));
#66=EDGE_LOOP('',(#230));
#67=EDGE_LOOP('',(#231,#232,#233,#234));
#68=EDGE_LOOP('',(#235));
#69=EDGE_LOOP('',(#236));
#70=EDGE_LOOP('',(#237,#238,#239,#240));
#71=EDGE_LOOP('',(#241));
#72=EDGE_LOOP('',(#242));
#73=EDGE_LOOP('',(#243));
#74=EDGE_LOOP('',(#244));
#75=LINE('',#389,#95);
#76=LINE('',#393,#96);
#77=LINE('',#398,#97);
#78=LINE('',#402,#98);
#79=LINE('',#407,#99);
#80=LINE('',#413,#100);
#81=LINE('',#419,#101);
#82=LINE('',#425,#102);
#83=LINE('',#430,#103);
#84=LINE('',#432,#104);
#85=LINE('',#434,#105);
#86=LINE('',#435,#106);
#87=LINE('',#438,#107);
#88=LINE('',#440,#108);
#89=LINE('',#441,#109);
#90=LINE('',#444,#110);
#91=LINE('',#446,#111);
#92=LINE('',#447,#112);
#93=LINE('',#449,#113);
#94=LINE('',#450,#114);
#95=VECTOR('',#316,1.5);
#96=VECTOR('',#321,3.);
#97=VECTOR('',#326,1.5);
#98=VECTOR('',#331,3.);
#99=VECTOR('',#336,4.188);
#100=VECTOR('',#343,11.688);
#101=VECTOR('',#350,4.5);
#102=VECTOR('',#357,4.5);
#103=VECTOR('',#362,10.);
#104=VECTOR('',#363,10.);
#105=VECTOR('',#364,10.);
#106=VECTOR('',#365,10.);
#107=VECTOR('',#368,10.);
#108=VECTOR('',#369,10.);
#109=VECTOR('',#370,10.);
#110=VECTOR('',#373,10.);
#111=VECTOR('',#374,10.);
#112=VECTOR('',#375,10.);
#113=VECTOR('',#378,10.);
#114=VECTOR('',#379,10.);
#115=CIRCLE('',#285,3.);
#116=CIRCLE('',#287,3.);
#117=CIRCLE('',#289,3.);
#118=CIRCLE('',#291,3.);
#119=CIRCLE('',#293,4.188);
#120=CIRCLE('',#294,4.188);
#121=CIRCLE('',#296,11.688);
#122=CIRCLE('',#297,11.688);
#123=CIRCLE('',#299,4.5);
#124=CIRCLE('',#300,4.5);
#125=CIRCLE('',#302,4.5);
#126=CIRCLE('',#303,4.5);
#127=VERTEX_POINT('',#386);
#128=VERTEX_POINT('',#388);
#129=VERTEX_POINT('',#391);
#130=VERTEX_POINT('',#395);
#131=VERTEX_POINT('',#397);
#132=VERTEX_POINT('',#400);
#133=VERTEX_POINT('',#404);
#134=VERTEX_POINT('',#406);
#135=VERTEX_POINT('',#410);
#136=VERTEX_POINT('',#412);
#137=VERTEX_POINT('',#416);
#138=VERTEX_POINT('',#418);
#139=VERTEX_POINT('',#422);
#140=VERTEX_POINT('',#424);
#141=VERTEX_POINT('',#428);
#142=VERTEX_POINT('',#429);
#143=VERTEX_POINT('',#431);
#144=VERTEX_POINT('',#433);
#145=VERTEX_POINT('',#437);
#146=VERTEX_POINT('',#439);
#147=VERTEX_POINT('',#443);
#148=VERTEX_POINT('',#445);
#149=EDGE_CURVE('',#127,#127,#115,.T.);
#150=EDGE_CURVE('',#127,#128,#75,.T.);
#151=EDGE_CURVE('',#129,#129,#116,.T.);
#152=EDGE_CURVE('',#129,#127,#76,.T.);
#153=EDGE_CURVE('',#130,#130,#117,.T.);
#154=EDGE_CURVE('',#130,#131,#77,.T.);
#155=EDGE_CURVE('',#132,#132,#118,.T.);
#156=EDGE_CURVE('',#132,#130,#78,.T.);
#157=EDGE_CURVE('',#133,#133,#119,.T.);
#158=EDGE_CURVE('',#133,#134,#79,.T.);
#159=EDGE_CURVE('',#134,#134,#120,.T.);
#160=EDGE_CURVE('',#135,#135,#121,.T.);
#161=EDGE_CURVE('',#135,#136,#80,.T.);
#162=EDGE_CURVE('',#136,#136,#122,.T.);
#163=EDGE_CURVE('',#137,#137,#123,.T.);
#164=EDGE_CURVE('',#137,#138,#81,.T.);
#165=EDGE_CURVE('',#138,#138,#124,.T.);
#166=EDGE_CURVE('',#139,#139,#125,.T.);
#167=EDGE_CURVE('',#139,#140,#82,.T.);
#168=EDGE_CURVE('',#140,#140,#126,.T.);
#169=EDGE_CURVE('',#141,#142,#83,.T.);
#170=EDGE_CURVE('',#142,#143,#84,.T.);
#171=EDGE_CURVE('',#144,#143,#85,.T.);
#172=EDGE_CURVE('',#141,#144,#86,.T.);
#173=EDGE_CURVE('',#145,#141,#87,.T.);
#174=EDGE_CURVE('',#146,#144,#88,.T.);
#175=EDGE_CURVE('',#145,#146,#89,.T.);
#176=EDGE_CURVE('',#147,#145,#90,.T.);
#177=EDGE_CURVE('',#148,#146,#91,.T.);
#178=EDGE_CURVE('',#147,#148,#92,.T.);
#179=EDGE_CURVE('',#142,#147,#93,.T.);
#180=EDGE_CURVE('',#143,#148,#94,.T.);
#181=ORIENTED_EDGE('',*,*,#149,.T.);
#182=ORIENTED_EDGE('',*,*,#150,.T.);
#183=ORIENTED_EDGE('',*,*,#150,.F.);
#184=ORIENTED_EDGE('',*,*,#151,.F.);
#185=ORIENTED_EDGE('',*,*,#152,.T.);
#186=ORIENTED_EDGE('',*,*,#149,.F.);
#187=ORIENTED_EDGE('',*,*,#152,.F.);
#188=ORIENTED_EDGE('',*,*,#153,.T.);
#189=ORIENTED_EDGE('',*,*,#154,.T.);
#190=ORIENTED_EDGE('',*,*,#154,.F.);
#191=ORIENTED_EDGE('',*,*,#155,.F.);
#192=ORIENTED_EDGE('',*,*,#156,.T.);
#193=ORIENTED_EDGE('',*,*,#153,.F.);
#194=ORIENTED_EDGE('',*,*,#156,.F.);
#195=ORIENTED_EDGE('',*,*,#157,.F.);
#196=ORIENTED_EDGE('',*,*,#158,.T.);
#197=ORIENTED_EDGE('',*,*,#159,.F.);
#198=ORIENTED_EDGE('',*,*,#158,.F.);
#199=ORIENTED_EDGE('',*,*,#160,.F.);
#200=ORIENTED_EDGE('',*,*,#161,.T.);
#201=ORIENTED_EDGE('',*,*,#162,.F.);
#202=ORIENTED_EDGE('',*,*,#161,.F.);
#203=ORIENTED_EDGE('',*,*,#163,.F.);
#204=ORIENTED_EDGE('',*,*,#164,.T.);
#205=ORIENTED_EDGE('',*,*,#165,.F.);
#206=ORIENTED_EDGE('',*,*,#164,.F.);
#207=ORIENTED_EDGE('',*,*,#166,.F.);
#208=ORIENTED_EDGE('',*,*,#167,.T.);
#209=ORIENTED_EDGE('',*,*,#168,.F.);
#210=ORIENTED_EDGE('',*,*,#167,.F.);
#211=ORIENTED_EDGE('',*,*,#169,.T.);
#212=ORIENTED_EDGE('',*,*,#170,.T.);
#213=ORIENTED_EDGE('',*,*,#171,.F.);
#214=ORIENTED_EDGE('',*,*,#172,.F.);
#215=ORIENTED_EDGE('',*,*,#173,.T.);
#216=ORIENTED_EDGE('',*,*,#172,.T.);
#217=ORIENTED_EDGE('',*,*,#174,.F.);
#218=ORIENTED_EDGE('',*,*,#175,.F.);
#219=ORIENTED_EDGE('',*,*,#159,.T.);
#220=ORIENTED_EDGE('',*,*,#162,.T.);
#221=ORIENTED_EDGE('',*,*,#176,.T.);
#222=ORIENTED_EDGE('',*,*,#175,.T.);
#223=ORIENTED_EDGE('',*,*,#177,.F.);
#224=ORIENTED_EDGE('',*,*,#178,.F.);
#225=ORIENTED_EDGE('',*,*,#179,.T.);
#226=ORIENTED_EDGE('',*,*,#178,.T.);
#227=ORIENTED_EDGE('',*,*,#180,.F.);
#228=ORIENTED_EDGE('',*,*,#170,.F.);
#229=ORIENTED_EDGE('',*,*,#157,.T.);
#230=ORIENTED_EDGE('',*,*,#160,.T.);
#231=ORIENTED_EDGE('',*,*,#180,.T.);
#232=ORIENTED_EDGE('',*,*,#177,.T.);
#233=ORIENTED_EDGE('',*,*,#174,.T.);
#234=ORIENTED_EDGE('',*,*,#171,.T.);
#235=ORIENTED_EDGE('',*,*,#163,.T.);
#236=ORIENTED_EDGE('',*,*,#166,.T.);
#237=ORIENTED_EDGE('',*,*,#179,.F.);
#238=ORIENTED_EDGE('',*,*,#169,.F.);
#239=ORIENTED_EDGE('',*,*,#173,.F.);
#240=ORIENTED_EDGE('',*,*,#176,.F.);
#241=ORIENTED_EDGE('',*,*,#151,.T.);
#242=ORIENTED_EDGE('',*,*,#155,.T.);
#243=ORIENTED_EDGE('',*,*,#165,.T.);
#244=ORIENTED_EDGE('',*,*,#168,.T.);
#245=CONICAL_SURFACE('',#284,1.5,1.02974425867665);
#246=CONICAL_SURFACE('',#288,1.5,1.02974425867665);
#247=ADVANCED_FACE('',(#37),#245,.F.);
#248=ADVANCED_FACE('',(#38),#31,.F.);
#249=ADVANCED_FACE('',(#39),#246,.F.);
#250=ADVANCED_FACE('',(#40),#32,.F.);
#251=ADVANCED_FACE('',(#41),#33,.F.);
#252=ADVANCED_FACE('',(#42),#34,.F.);
#253=ADVANCED_FACE('',(#43),#35,.F.);
#254=ADVANCED_FACE('',(#44),#36,.F.);
#255=ADVANCED_FACE('',(#45),#25,.T.);
#256=ADVANCED_FACE('',(#46,#15,#16),#26,.T.);
#257=ADVANCED_FACE('',(#47),#27,.T.);
#258=ADVANCED_FACE('',(#48,#17,#18),#28,.T.);
#259=ADVANCED_FACE('',(#49,#19,#20),#29,.T.);
#260=ADVANCED_FACE('',(#50,#21,#22,#23,#24),#30,.F.);
#261=CLOSED_SHELL('',(#247,#248,#249,#250,#251,#252,#253,#254,#255,#256,
#257,#258,#259,#260));
#262=DERIVED_UNIT_ELEMENT(#265,1.);
#263=DERIVED_UNIT_ELEMENT(#458,-3.);
#264=DIMENSIONAL_EXPONENTS(0.,1.,0.,0.,0.,0.,0.);
#265=(
CONVERSION_BASED_UNIT('gram',#267)
MASS_UNIT()
NAMED_UNIT(#264)
);
#266=(
MASS_UNIT()
NAMED_UNIT(*)
SI_UNIT(.KILO.,.GRAM.)
);
#267=MASS_MEASURE_WITH_UNIT(MASS_MEASURE(0.001),#266);
#268=DERIVED_UNIT((#262,#263));
#269=MEASURE_REPRESENTATION_ITEM('density measure',
POSITIVE_RATIO_MEASURE(7.85),#268);
#270=PROPERTY_DEFINITION_REPRESENTATION(#275,#272);
#271=PROPERTY_DEFINITION_REPRESENTATION(#276,#273);
#272=REPRESENTATION('material name',(#274),#455);
#273=REPRESENTATION('density',(#269),#455);
#274=DESCRIPTIVE_REPRESENTATION_ITEM('S235JR (1.0038)',
'S235JR (1.0038)');
#275=PROPERTY_DEFINITION('material property','material name',#465);
#276=PROPERTY_DEFINITION('material property','density of part',#465);
#277=DATE_TIME_ROLE('creation_date');
#278=APPLIED_DATE_AND_TIME_ASSIGNMENT(#279,#277,(#465));
#279=DATE_AND_TIME(#280,#281);
#280=CALENDAR_DATE(2018,15,8);
#281=LOCAL_TIME(0,0,0.,#282);
#282=COORDINATED_UNIVERSAL_TIME_OFFSET(0,0,.BEHIND.);
#283=AXIS2_PLACEMENT_3D('',#384,#310,#311);
#284=AXIS2_PLACEMENT_3D('',#385,#312,#313);
#285=AXIS2_PLACEMENT_3D('',#387,#314,#315);
#286=AXIS2_PLACEMENT_3D('',#390,#317,#318);
#287=AXIS2_PLACEMENT_3D('',#392,#319,#320);
#288=AXIS2_PLACEMENT_3D('',#394,#322,#323);
#289=AXIS2_PLACEMENT_3D('',#396,#324,#325);
#290=AXIS2_PLACEMENT_3D('',#399,#327,#328);
#291=AXIS2_PLACEMENT_3D('',#401,#329,#330);
#292=AXIS2_PLACEMENT_3D('',#403,#332,#333);
#293=AXIS2_PLACEMENT_3D('',#405,#334,#335);
#294=AXIS2_PLACEMENT_3D('',#408,#337,#338);
#295=AXIS2_PLACEMENT_3D('',#409,#339,#340);
#296=AXIS2_PLACEMENT_3D('',#411,#341,#342);
#297=AXIS2_PLACEMENT_3D('',#414,#344,#345);
#298=AXIS2_PLACEMENT_3D('',#415,#346,#347);
#299=AXIS2_PLACEMENT_3D('',#417,#348,#349);
#300=AXIS2_PLACEMENT_3D('',#420,#351,#352);
#301=AXIS2_PLACEMENT_3D('',#421,#353,#354);
#302=AXIS2_PLACEMENT_3D('',#423,#355,#356);
#303=AXIS2_PLACEMENT_3D('',#426,#358,#359);
#304=AXIS2_PLACEMENT_3D('',#427,#360,#361);
#305=AXIS2_PLACEMENT_3D('',#436,#366,#367);
#306=AXIS2_PLACEMENT_3D('',#442,#371,#372);
#307=AXIS2_PLACEMENT_3D('',#448,#376,#377);
#308=AXIS2_PLACEMENT_3D('',#451,#380,#381);
#309=AXIS2_PLACEMENT_3D('',#452,#382,#383);
#310=DIRECTION('axis',(0.,0.,1.));
#311=DIRECTION('refdir',(1.,0.,0.));
#312=DIRECTION('center_axis',(0.,0.,-1.));
#313=DIRECTION('ref_axis',(-1.,0.,0.));
#314=DIRECTION('center_axis',(0.,0.,-1.));
#315=DIRECTION('ref_axis',(-1.,0.,0.));
#316=DIRECTION('',(-0.857167300702112,1.04972719113862E-16,0.515038074910054));
#317=DIRECTION('center_axis',(0.,0.,-1.));
#318=DIRECTION('ref_axis',(-1.,0.,0.));
#319=DIRECTION('center_axis',(0.,0.,1.));
#320=DIRECTION('ref_axis',(-1.,0.,0.));
#321=DIRECTION('',(0.,0.,1.));
#322=DIRECTION('center_axis',(0.,0.,-1.));
#323=DIRECTION('ref_axis',(-1.,0.,0.));
#324=DIRECTION('center_axis',(0.,0.,-1.));
#325=DIRECTION('ref_axis',(-1.,0.,0.));
#326=DIRECTION('',(-0.857167300702112,1.04972719113862E-16,0.515038074910054));
#327=DIRECTION('center_axis',(0.,0.,-1.));
#328=DIRECTION('ref_axis',(-1.,0.,0.));
#329=DIRECTION('center_axis',(0.,0.,1.));
#330=DIRECTION('ref_axis',(-1.,0.,0.));
#331=DIRECTION('',(0.,0.,1.));
#332=DIRECTION('center_axis',(0.,-1.,0.));
#333=DIRECTION('ref_axis',(1.,0.,0.));
#334=DIRECTION('center_axis',(0.,1.,0.));
#335=DIRECTION('ref_axis',(1.,0.,0.));
#336=DIRECTION('',(0.,1.,0.));
#337=DIRECTION('center_axis',(0.,-1.,0.));
#338=DIRECTION('ref_axis',(1.,0.,0.));
#339=DIRECTION('center_axis',(0.,-1.,0.));
#340=DIRECTION('ref_axis',(1.,0.,0.));
#341=DIRECTION('center_axis',(0.,1.,0.));
#342=DIRECTION('ref_axis',(1.,0.,0.));
#343=DIRECTION('',(0.,1.,0.));
#344=DIRECTION('center_axis',(0.,-1.,0.));
#345=DIRECTION('ref_axis',(1.,0.,0.));
#346=DIRECTION('center_axis',(0.,0.,1.));
#347=DIRECTION('ref_axis',(1.,0.,0.));
#348=DIRECTION('center_axis',(0.,0.,-1.));
#349=DIRECTION('ref_axis',(1.,0.,0.));
#350=DIRECTION('',(0.,0.,-1.));
#351=DIRECTION('center_axis',(0.,0.,1.));
#352=DIRECTION('ref_axis',(1.,0.,0.));
#353=DIRECTION('center_axis',(0.,0.,1.));
#354=DIRECTION('ref_axis',(1.,0.,0.));
#355=DIRECTION('center_axis',(0.,0.,-1.));
#356=DIRECTION('ref_axis',(1.,0.,0.));
#357=DIRECTION('',(0.,0.,-1.));
#358=DIRECTION('center_axis',(0.,0.,1.));
#359=DIRECTION('ref_axis',(1.,0.,0.));
#360=DIRECTION('center_axis',(-1.,-3.5527136788005E-16,0.));
#361=DIRECTION('ref_axis',(3.5527136788005E-16,-1.,0.));
#362=DIRECTION('',(3.5527136788005E-16,-1.,0.));
#363=DIRECTION('',(0.,0.,1.));
#364=DIRECTION('',(3.5527136788005E-16,-1.,0.));
#365=DIRECTION('',(0.,0.,1.));
#366=DIRECTION('center_axis',(0.,1.,0.));
#367=DIRECTION('ref_axis',(-1.,0.,0.));
#368=DIRECTION('',(-1.,0.,0.));
#369=DIRECTION('',(-1.,0.,0.));
#370=DIRECTION('',(0.,0.,1.));
#371=DIRECTION('center_axis',(1.,7.105427357601E-16,0.));
#372=DIRECTION('ref_axis',(-7.105427357601E-16,1.,0.));
#373=DIRECTION('',(-7.105427357601E-16,1.,0.));
#374=DIRECTION('',(-7.105427357601E-16,1.,0.));
#375=DIRECTION('',(0.,0.,1.));
#376=DIRECTION('center_axis',(0.,-1.,0.));
#377=DIRECTION('ref_axis',(1.,0.,0.));
#378=DIRECTION('',(1.,0.,0.));
#379=DIRECTION('',(1.,0.,0.));
#380=DIRECTION('center_axis',(0.,0.,1.));
#381=DIRECTION('ref_axis',(1.,0.,0.));
#382=DIRECTION('center_axis',(0.,0.,1.));
#383=DIRECTION('ref_axis',(1.,0.,0.));
#384=CARTESIAN_POINT('',(0.,0.,0.));
#385=CARTESIAN_POINT('Origin',(18.,12.5,10.9012909285413));
#386=CARTESIAN_POINT('',(21.,12.5,10.));
#387=CARTESIAN_POINT('Origin',(18.,12.5,10.));
#388=CARTESIAN_POINT('',(18.,12.5,11.8025818570827));
#389=CARTESIAN_POINT('',(19.5,12.5,10.9012909285413));
#390=CARTESIAN_POINT('Origin',(18.,12.5,5.));
#391=CARTESIAN_POINT('',(21.,12.5,0.));
#392=CARTESIAN_POINT('Origin',(18.,12.5,0.));
#393=CARTESIAN_POINT('',(21.,12.5,5.));
#394=CARTESIAN_POINT('Origin',(34.,12.5,10.9012909285413));
#395=CARTESIAN_POINT('',(37.,12.5,10.));
#396=CARTESIAN_POINT('Origin',(34.,12.5,10.));
#397=CARTESIAN_POINT('',(34.,12.5,11.8025818570827));
#398=CARTESIAN_POINT('',(35.5,12.5,10.9012909285413));
#399=CARTESIAN_POINT('Origin',(34.,12.5,5.));
#400=CARTESIAN_POINT('',(37.,12.5,0.));
#401=CARTESIAN_POINT('Origin',(34.,12.5,0.));
#402=CARTESIAN_POINT('',(37.,12.5,5.));
#403=CARTESIAN_POINT('Origin',(26.,86.913750350563,55.));
#404=CARTESIAN_POINT('',(21.812,0.,55.));
#405=CARTESIAN_POINT('Origin',(26.,0.,55.));
#406=CARTESIAN_POINT('',(21.812,25.,55.));
#407=CARTESIAN_POINT('',(21.812,86.913750350563,55.));
#408=CARTESIAN_POINT('Origin',(26.,25.,55.));
#409=CARTESIAN_POINT('Origin',(26.,28.65,25.));
#410=CARTESIAN_POINT('',(14.312,0.,25.));
#411=CARTESIAN_POINT('Origin',(26.,0.,25.));
#412=CARTESIAN_POINT('',(14.312,25.,25.));
#413=CARTESIAN_POINT('',(14.312,28.65,25.));
#414=CARTESIAN_POINT('Origin',(26.,25.,25.));
#415=CARTESIAN_POINT('Origin',(7.99999999999999,12.5,-21.9137503505631));
#416=CARTESIAN_POINT('',(3.49999999999999,12.5,65.));
#417=CARTESIAN_POINT('Origin',(7.99999999999999,12.5,65.));
#418=CARTESIAN_POINT('',(3.49999999999999,12.5,0.));
#419=CARTESIAN_POINT('',(3.49999999999999,12.5,-21.9137503505631));
#420=CARTESIAN_POINT('Origin',(7.99999999999999,12.5,0.));
#421=CARTESIAN_POINT('Origin',(44.,12.5,-21.9137503505631));
#422=CARTESIAN_POINT('',(39.5,12.5,65.));
#423=CARTESIAN_POINT('Origin',(44.,12.5,65.));
#424=CARTESIAN_POINT('',(39.5,12.5,0.));
#425=CARTESIAN_POINT('',(39.5,12.5,-21.9137503505631));
#426=CARTESIAN_POINT('Origin',(44.,12.5,0.));
#427=CARTESIAN_POINT('Origin',(-8.88178419700125E-15,25.,0.));
#428=CARTESIAN_POINT('',(-8.88178419700125E-15,25.,0.));
#429=CARTESIAN_POINT('',(0.,0.,0.));
#430=CARTESIAN_POINT('',(-8.88178419700125E-15,25.,0.));
#431=CARTESIAN_POINT('',(0.,0.,65.));
#432=CARTESIAN_POINT('',(0.,0.,0.));
#433=CARTESIAN_POINT('',(-8.88178419700125E-15,25.,65.));
#434=CARTESIAN_POINT('',(-8.88178419700125E-15,25.,65.));
#435=CARTESIAN_POINT('',(-8.88178419700125E-15,25.,0.));
#436=CARTESIAN_POINT('Origin',(52.,25.,0.));
#437=CARTESIAN_POINT('',(52.,25.,0.));
#438=CARTESIAN_POINT('',(52.,25.,0.));
#439=CARTESIAN_POINT('',(52.,25.,65.));
#440=CARTESIAN_POINT('',(52.,25.,65.));
#441=CARTESIAN_POINT('',(52.,25.,0.));
#442=CARTESIAN_POINT('Origin',(52.,0.,0.));
#443=CARTESIAN_POINT('',(52.,0.,0.));
#444=CARTESIAN_POINT('',(52.,0.,0.));
#445=CARTESIAN_POINT('',(52.,0.,65.));
#446=CARTESIAN_POINT('',(52.,0.,65.));
#447=CARTESIAN_POINT('',(52.,0.,0.));
#448=CARTESIAN_POINT('Origin',(0.,0.,0.));
#449=CARTESIAN_POINT('',(0.,0.,0.));
#450=CARTESIAN_POINT('',(0.,0.,65.));
#451=CARTESIAN_POINT('Origin',(26.,12.5,65.));
#452=CARTESIAN_POINT('Origin',(26.,12.5,0.));
#453=UNCERTAINTY_MEASURE_WITH_UNIT(LENGTH_MEASURE(0.01),#457,
'DISTANCE_ACCURACY_VALUE',
'Maximum model space distance between geometric entities at asserted c
onnectivities');
#454=UNCERTAINTY_MEASURE_WITH_UNIT(LENGTH_MEASURE(0.01),#457,
'DISTANCE_ACCURACY_VALUE',
'Maximum model space distance between geometric entities at asserted c
onnectivities');
#455=(
GEOMETRIC_REPRESENTATION_CONTEXT(3)
GLOBAL_UNCERTAINTY_ASSIGNED_CONTEXT((#453))
GLOBAL_UNIT_ASSIGNED_CONTEXT((#457,#459,#460))
REPRESENTATION_CONTEXT('','3D')
);
#456=(
GEOMETRIC_REPRESENTATION_CONTEXT(3)
GLOBAL_UNCERTAINTY_ASSIGNED_CONTEXT((#454))
GLOBAL_UNIT_ASSIGNED_CONTEXT((#457,#459,#460))
REPRESENTATION_CONTEXT('','3D')
);
#457=(
LENGTH_UNIT()
NAMED_UNIT(*)
SI_UNIT(.MILLI.,.METRE.)
);
#458=(
LENGTH_UNIT()
NAMED_UNIT(*)
SI_UNIT(.CENTI.,.METRE.)
);
#459=(
NAMED_UNIT(*)
PLANE_ANGLE_UNIT()
SI_UNIT($,.RADIAN.)
);
#460=(
NAMED_UNIT(*)
SI_UNIT($,.STERADIAN.)
SOLID_ANGLE_UNIT()
);
#461=SHAPE_DEFINITION_REPRESENTATION(#462,#463);
#462=PRODUCT_DEFINITION_SHAPE('',$,#465);
#463=SHAPE_REPRESENTATION('',(#283),#455);
#464=PRODUCT_DEFINITION_CONTEXT('part definition',#469,'design');
#465=PRODUCT_DEFINITION('00039670','00039670',#466,#464);
#466=PRODUCT_DEFINITION_FORMATION('',$,#471);
#467=PRODUCT_RELATED_PRODUCT_CATEGORY('00039670','00039670',(#471));
#468=APPLICATION_PROTOCOL_DEFINITION('international standard',
'automotive_design',2009,#469);
#469=APPLICATION_CONTEXT(
'Core Data for Automotive Mechanical Design Process');
#470=PRODUCT_CONTEXT('part definition',#469,'mechanical');
#471=PRODUCT('00039670','00039670','Distanzplatte',(#470));
#472=PRESENTATION_STYLE_ASSIGNMENT((#473));
#473=SURFACE_STYLE_USAGE(.BOTH.,#476);
#474=SURFACE_STYLE_RENDERING_WITH_PROPERTIES($,#480,(#475));
#475=SURFACE_STYLE_TRANSPARENT(0.);
#476=SURFACE_SIDE_STYLE('',(#477,#474));
#477=SURFACE_STYLE_FILL_AREA(#478);
#478=FILL_AREA_STYLE('',(#479));
#479=FILL_AREA_STYLE_COLOUR('',#480);
#480=COLOUR_RGB('',0.501960784313725,0.501960784313725,0.501960784313725);
ENDSEC;
END-ISO-10303-21;
