ISO-10303-21;
HEADER;
/* Generated by software containing ST-Developer
 * from STEP Tools, Inc. (www.steptools.com) 
 */

FILE_DESCRIPTION(
/* description */ ('Anschlag'),
/* implementation_level */ '2;1');

FILE_NAME(
/* name */ '00039668.stp',
/* time_stamp */ '2023-08-24T13:43:27+02:00',
/* author */ ('Pflugbeil'),
/* organization */ (''),
/* preprocessor_version */ 'ST-DEVELOPER v19.2',
/* originating_system */ 'Autodesk Inventor 2023',
/* authorisation */ '');

FILE_SCHEMA (('AUTOMOTIVE_DESIGN { 1 0 10303 214 3 1 1 }'));
ENDSEC;

DATA;
#10=MECHANICAL_DESIGN_GEOMETRIC_PRESENTATION_REPRESENTATION('',(#13),#479);
#11=SHAPE_REPRESENTATION_RELATIONSHIP('SRR','None',#486,#12);
#12=ADVANCED_BREP_SHAPE_REPRESENTATION('',(#14),#478);
#13=STYLED_ITEM('',(#495),#14);
#14=MANIFOLD_SOLID_BREP('Volumenk\X\F6rper1',#276);
#15=FACE_BOUND('',#55,.T.);
#16=FACE_BOUND('',#56,.T.);
#17=FACE_BOUND('',#66,.T.);
#18=FACE_BOUND('',#67,.T.);
#19=FACE_BOUND('',#68,.T.);
#20=FACE_BOUND('',#69,.T.);
#21=PLANE('',#310);
#22=PLANE('',#317);
#23=PLANE('',#318);
#24=PLANE('',#319);
#25=PLANE('',#320);
#26=PLANE('',#321);
#27=PLANE('',#322);
#28=PLANE('',#323);
#29=CYLINDRICAL_SURFACE('',#301,4.);
#30=CYLINDRICAL_SURFACE('',#305,4.);
#31=CYLINDRICAL_SURFACE('',#307,10.);
#32=CYLINDRICAL_SURFACE('',#313,4.5);
#33=CYLINDRICAL_SURFACE('',#315,4.5);
#34=FACE_OUTER_BOUND('',#49,.T.);
#35=FACE_OUTER_BOUND('',#50,.T.);
#36=FACE_OUTER_BOUND('',#51,.T.);
#37=FACE_OUTER_BOUND('',#52,.T.);
#38=FACE_OUTER_BOUND('',#53,.T.);
#39=FACE_OUTER_BOUND('',#54,.T.);
#40=FACE_OUTER_BOUND('',#57,.T.);
#41=FACE_OUTER_BOUND('',#58,.T.);
#42=FACE_OUTER_BOUND('',#59,.T.);
#43=FACE_OUTER_BOUND('',#60,.T.);
#44=FACE_OUTER_BOUND('',#61,.T.);
#45=FACE_OUTER_BOUND('',#62,.T.);
#46=FACE_OUTER_BOUND('',#63,.T.);
#47=FACE_OUTER_BOUND('',#64,.T.);
#48=FACE_OUTER_BOUND('',#65,.T.);
#49=EDGE_LOOP('',(#189,#190,#191));
#50=EDGE_LOOP('',(#192,#193,#194,#195));
#51=EDGE_LOOP('',(#196,#197,#198));
#52=EDGE_LOOP('',(#199,#200,#201,#202));
#53=EDGE_LOOP('',(#203,#204,#205,#206));
#54=EDGE_LOOP('',(#207,#208,#209,#210));
#55=EDGE_LOOP('',(#211));
#56=EDGE_LOOP('',(#212));
#57=EDGE_LOOP('',(#213,#214,#215,#216));
#58=EDGE_LOOP('',(#217,#218,#219,#220));
#59=EDGE_LOOP('',(#221,#222,#223,#224));
#60=EDGE_LOOP('',(#225,#226,#227,#228,#229,#230,#231));
#61=EDGE_LOOP('',(#232,#233,#234,#235,#236,#237,#238));
#62=EDGE_LOOP('',(#239,#240,#241,#242));
#63=EDGE_LOOP('',(#243,#244,#245,#246));
#64=EDGE_LOOP('',(#247,#248,#249,#250));
#65=EDGE_LOOP('',(#251,#252,#253,#254));
#66=EDGE_LOOP('',(#255));
#67=EDGE_LOOP('',(#256));
#68=EDGE_LOOP('',(#257));
#69=EDGE_LOOP('',(#258));
#70=LINE('',#406,#95);
#71=LINE('',#410,#96);
#72=LINE('',#415,#97);
#73=LINE('',#419,#98);
#74=LINE('',#425,#99);
#75=LINE('',#428,#100);
#76=LINE('',#431,#101);
#77=LINE('',#433,#102);
#78=LINE('',#434,#103);
#79=LINE('',#441,#104);
#80=LINE('',#445,#105);
#81=LINE('',#449,#106);
#82=LINE('',#451,#107);
#83=LINE('',#452,#108);
#84=LINE('',#455,#109);
#85=LINE('',#457,#110);
#86=LINE('',#459,#111);
#87=LINE('',#460,#112);
#88=LINE('',#463,#113);
#89=LINE('',#465,#114);
#90=LINE('',#467,#115);
#91=LINE('',#468,#116);
#92=LINE('',#470,#117);
#93=LINE('',#471,#118);
#94=LINE('',#474,#119);
#95=VECTOR('',#330,2.);
#96=VECTOR('',#335,4.);
#97=VECTOR('',#340,2.);
#98=VECTOR('',#345,4.);
#99=VECTOR('',#350,10.);
#100=VECTOR('',#353,10.);
#101=VECTOR('',#356,10.);
#102=VECTOR('',#357,10.);
#103=VECTOR('',#358,10.);
#104=VECTOR('',#365,4.5);
#105=VECTOR('',#370,4.5);
#106=VECTOR('',#375,10.);
#107=VECTOR('',#376,10.);
#108=VECTOR('',#377,10.);
#109=VECTOR('',#380,10.);
#110=VECTOR('',#381,10.);
#111=VECTOR('',#382,10.);
#112=VECTOR('',#383,10.);
#113=VECTOR('',#386,10.);
#114=VECTOR('',#387,10.);
#115=VECTOR('',#388,10.);
#116=VECTOR('',#389,10.);
#117=VECTOR('',#392,10.);
#118=VECTOR('',#393,10.);
#119=VECTOR('',#398,10.);
#120=CIRCLE('',#300,4.);
#121=CIRCLE('',#302,4.);
#122=CIRCLE('',#304,4.);
#123=CIRCLE('',#306,4.);
#124=CIRCLE('',#308,10.);
#125=CIRCLE('',#309,10.);
#126=CIRCLE('',#311,4.5);
#127=CIRCLE('',#312,4.5);
#128=CIRCLE('',#314,4.5);
#129=CIRCLE('',#316,4.5);
#130=VERTEX_POINT('',#403);
#131=VERTEX_POINT('',#405);
#132=VERTEX_POINT('',#408);
#133=VERTEX_POINT('',#412);
#134=VERTEX_POINT('',#414);
#135=VERTEX_POINT('',#417);
#136=VERTEX_POINT('',#421);
#137=VERTEX_POINT('',#422);
#138=VERTEX_POINT('',#424);
#139=VERTEX_POINT('',#426);
#140=VERTEX_POINT('',#430);
#141=VERTEX_POINT('',#432);
#142=VERTEX_POINT('',#435);
#143=VERTEX_POINT('',#437);
#144=VERTEX_POINT('',#440);
#145=VERTEX_POINT('',#444);
#146=VERTEX_POINT('',#448);
#147=VERTEX_POINT('',#450);
#148=VERTEX_POINT('',#454);
#149=VERTEX_POINT('',#456);
#150=VERTEX_POINT('',#458);
#151=VERTEX_POINT('',#462);
#152=VERTEX_POINT('',#464);
#153=VERTEX_POINT('',#466);
#154=EDGE_CURVE('',#130,#130,#120,.T.);
#155=EDGE_CURVE('',#130,#131,#70,.T.);
#156=EDGE_CURVE('',#132,#132,#121,.T.);
#157=EDGE_CURVE('',#132,#130,#71,.T.);
#158=EDGE_CURVE('',#133,#133,#122,.T.);
#159=EDGE_CURVE('',#133,#134,#72,.T.);
#160=EDGE_CURVE('',#135,#135,#123,.T.);
#161=EDGE_CURVE('',#135,#133,#73,.T.);
#162=EDGE_CURVE('',#136,#137,#124,.T.);
#163=EDGE_CURVE('',#137,#138,#74,.T.);
#164=EDGE_CURVE('',#138,#139,#125,.T.);
#165=EDGE_CURVE('',#139,#136,#75,.T.);
#166=EDGE_CURVE('',#140,#137,#76,.T.);
#167=EDGE_CURVE('',#141,#140,#77,.T.);
#168=EDGE_CURVE('',#138,#141,#78,.T.);
#169=EDGE_CURVE('',#142,#142,#126,.T.);
#170=EDGE_CURVE('',#143,#143,#127,.T.);
#171=EDGE_CURVE('',#143,#144,#79,.T.);
#172=EDGE_CURVE('',#144,#144,#128,.T.);
#173=EDGE_CURVE('',#142,#145,#80,.T.);
#174=EDGE_CURVE('',#145,#145,#129,.T.);
#175=EDGE_CURVE('',#146,#139,#81,.T.);
#176=EDGE_CURVE('',#147,#146,#82,.T.);
#177=EDGE_CURVE('',#136,#147,#83,.T.);
#178=EDGE_CURVE('',#148,#141,#84,.T.);
#179=EDGE_CURVE('',#149,#148,#85,.T.);
#180=EDGE_CURVE('',#150,#149,#86,.T.);
#181=EDGE_CURVE('',#146,#150,#87,.T.);
#182=EDGE_CURVE('',#147,#151,#88,.T.);
#183=EDGE_CURVE('',#151,#152,#89,.T.);
#184=EDGE_CURVE('',#152,#153,#90,.T.);
#185=EDGE_CURVE('',#153,#140,#91,.T.);
#186=EDGE_CURVE('',#149,#152,#92,.T.);
#187=EDGE_CURVE('',#150,#151,#93,.T.);
#188=EDGE_CURVE('',#148,#153,#94,.T.);
#189=ORIENTED_EDGE('',*,*,#154,.T.);
#190=ORIENTED_EDGE('',*,*,#155,.T.);
#191=ORIENTED_EDGE('',*,*,#155,.F.);
#192=ORIENTED_EDGE('',*,*,#156,.F.);
#193=ORIENTED_EDGE('',*,*,#157,.T.);
#194=ORIENTED_EDGE('',*,*,#154,.F.);
#195=ORIENTED_EDGE('',*,*,#157,.F.);
#196=ORIENTED_EDGE('',*,*,#158,.T.);
#197=ORIENTED_EDGE('',*,*,#159,.T.);
#198=ORIENTED_EDGE('',*,*,#159,.F.);
#199=ORIENTED_EDGE('',*,*,#160,.F.);
#200=ORIENTED_EDGE('',*,*,#161,.T.);
#201=ORIENTED_EDGE('',*,*,#158,.F.);
#202=ORIENTED_EDGE('',*,*,#161,.F.);
#203=ORIENTED_EDGE('',*,*,#162,.T.);
#204=ORIENTED_EDGE('',*,*,#163,.T.);
#205=ORIENTED_EDGE('',*,*,#164,.T.);
#206=ORIENTED_EDGE('',*,*,#165,.T.);
#207=ORIENTED_EDGE('',*,*,#163,.F.);
#208=ORIENTED_EDGE('',*,*,#166,.F.);
#209=ORIENTED_EDGE('',*,*,#167,.F.);
#210=ORIENTED_EDGE('',*,*,#168,.F.);
#211=ORIENTED_EDGE('',*,*,#169,.T.);
#212=ORIENTED_EDGE('',*,*,#170,.T.);
#213=ORIENTED_EDGE('',*,*,#170,.F.);
#214=ORIENTED_EDGE('',*,*,#171,.T.);
#215=ORIENTED_EDGE('',*,*,#172,.F.);
#216=ORIENTED_EDGE('',*,*,#171,.F.);
#217=ORIENTED_EDGE('',*,*,#169,.F.);
#218=ORIENTED_EDGE('',*,*,#173,.T.);
#219=ORIENTED_EDGE('',*,*,#174,.F.);
#220=ORIENTED_EDGE('',*,*,#173,.F.);
#221=ORIENTED_EDGE('',*,*,#165,.F.);
#222=ORIENTED_EDGE('',*,*,#175,.F.);
#223=ORIENTED_EDGE('',*,*,#176,.F.);
#224=ORIENTED_EDGE('',*,*,#177,.F.);
#225=ORIENTED_EDGE('',*,*,#175,.T.);
#226=ORIENTED_EDGE('',*,*,#164,.F.);
#227=ORIENTED_EDGE('',*,*,#168,.T.);
#228=ORIENTED_EDGE('',*,*,#178,.F.);
#229=ORIENTED_EDGE('',*,*,#179,.F.);
#230=ORIENTED_EDGE('',*,*,#180,.F.);
#231=ORIENTED_EDGE('',*,*,#181,.F.);
#232=ORIENTED_EDGE('',*,*,#166,.T.);
#233=ORIENTED_EDGE('',*,*,#162,.F.);
#234=ORIENTED_EDGE('',*,*,#177,.T.);
#235=ORIENTED_EDGE('',*,*,#182,.T.);
#236=ORIENTED_EDGE('',*,*,#183,.T.);
#237=ORIENTED_EDGE('',*,*,#184,.T.);
#238=ORIENTED_EDGE('',*,*,#185,.T.);
#239=ORIENTED_EDGE('',*,*,#180,.T.);
#240=ORIENTED_EDGE('',*,*,#186,.T.);
#241=ORIENTED_EDGE('',*,*,#183,.F.);
#242=ORIENTED_EDGE('',*,*,#187,.F.);
#243=ORIENTED_EDGE('',*,*,#176,.T.);
#244=ORIENTED_EDGE('',*,*,#181,.T.);
#245=ORIENTED_EDGE('',*,*,#187,.T.);
#246=ORIENTED_EDGE('',*,*,#182,.F.);
#247=ORIENTED_EDGE('',*,*,#167,.T.);
#248=ORIENTED_EDGE('',*,*,#185,.F.);
#249=ORIENTED_EDGE('',*,*,#188,.F.);
#250=ORIENTED_EDGE('',*,*,#178,.T.);
#251=ORIENTED_EDGE('',*,*,#179,.T.);
#252=ORIENTED_EDGE('',*,*,#188,.T.);
#253=ORIENTED_EDGE('',*,*,#184,.F.);
#254=ORIENTED_EDGE('',*,*,#186,.F.);
#255=ORIENTED_EDGE('',*,*,#156,.T.);
#256=ORIENTED_EDGE('',*,*,#160,.T.);
#257=ORIENTED_EDGE('',*,*,#172,.T.);
#258=ORIENTED_EDGE('',*,*,#174,.T.);
#259=CONICAL_SURFACE('',#299,2.,1.02974425867665);
#260=CONICAL_SURFACE('',#303,2.,1.02974425867665);
#261=ADVANCED_FACE('',(#34),#259,.F.);
#262=ADVANCED_FACE('',(#35),#29,.F.);
#263=ADVANCED_FACE('',(#36),#260,.F.);
#264=ADVANCED_FACE('',(#37),#30,.F.);
#265=ADVANCED_FACE('',(#38),#31,.F.);
#266=ADVANCED_FACE('',(#39,#15,#16),#21,.F.);
#267=ADVANCED_FACE('',(#40),#32,.F.);
#268=ADVANCED_FACE('',(#41),#33,.F.);
#269=ADVANCED_FACE('',(#42),#22,.F.);
#270=ADVANCED_FACE('',(#43),#23,.T.);
#271=ADVANCED_FACE('',(#44),#24,.T.);
#272=ADVANCED_FACE('',(#45),#25,.T.);
#273=ADVANCED_FACE('',(#46),#26,.T.);
#274=ADVANCED_FACE('',(#47),#27,.T.);
#275=ADVANCED_FACE('',(#48,#17,#18,#19,#20),#28,.T.);
#276=CLOSED_SHELL('',(#261,#262,#263,#264,#265,#266,#267,#268,#269,#270,
#271,#272,#273,#274,#275));
#277=DERIVED_UNIT_ELEMENT(#280,1.);
#278=DERIVED_UNIT_ELEMENT(#481,-3.);
#279=DIMENSIONAL_EXPONENTS(0.,1.,0.,0.,0.,0.,0.);
#280=(
CONVERSION_BASED_UNIT('gram',#282)
MASS_UNIT()
NAMED_UNIT(#279)
);
#281=(
MASS_UNIT()
NAMED_UNIT(*)
SI_UNIT(.KILO.,.GRAM.)
);
#282=MASS_MEASURE_WITH_UNIT(MASS_MEASURE(0.001),#281);
#283=DERIVED_UNIT((#277,#278));
#284=MEASURE_REPRESENTATION_ITEM('density measure',
POSITIVE_RATIO_MEASURE(7.76),#283);
#285=PROPERTY_DEFINITION_REPRESENTATION(#290,#287);
#286=PROPERTY_DEFINITION_REPRESENTATION(#291,#288);
#287=REPRESENTATION('material name',(#289),#478);
#288=REPRESENTATION('density',(#284),#478);
#289=DESCRIPTIVE_REPRESENTATION_ITEM('16MnCr5 (1.7131)',
'16MnCr5 (1.7131)');
#290=PROPERTY_DEFINITION('material property','material name',#488);
#291=PROPERTY_DEFINITION('material property','density of part',#488);
#292=DATE_TIME_ROLE('creation_date');
#293=APPLIED_DATE_AND_TIME_ASSIGNMENT(#294,#292,(#488));
#294=DATE_AND_TIME(#295,#296);
#295=CALENDAR_DATE(2018,17,8);
#296=LOCAL_TIME(0,0,0.,#297);
#297=COORDINATED_UNIVERSAL_TIME_OFFSET(0,0,.BEHIND.);
#298=AXIS2_PLACEMENT_3D('',#401,#324,#325);
#299=AXIS2_PLACEMENT_3D('',#402,#326,#327);
#300=AXIS2_PLACEMENT_3D('',#404,#328,#329);
#301=AXIS2_PLACEMENT_3D('',#407,#331,#332);
#302=AXIS2_PLACEMENT_3D('',#409,#333,#334);
#303=AXIS2_PLACEMENT_3D('',#411,#336,#337);
#304=AXIS2_PLACEMENT_3D('',#413,#338,#339);
#305=AXIS2_PLACEMENT_3D('',#416,#341,#342);
#306=AXIS2_PLACEMENT_3D('',#418,#343,#344);
#307=AXIS2_PLACEMENT_3D('',#420,#346,#347);
#308=AXIS2_PLACEMENT_3D('',#423,#348,#349);
#309=AXIS2_PLACEMENT_3D('',#427,#351,#352);
#310=AXIS2_PLACEMENT_3D('',#429,#354,#355);
#311=AXIS2_PLACEMENT_3D('',#436,#359,#360);
#312=AXIS2_PLACEMENT_3D('',#438,#361,#362);
#313=AXIS2_PLACEMENT_3D('',#439,#363,#364);
#314=AXIS2_PLACEMENT_3D('',#442,#366,#367);
#315=AXIS2_PLACEMENT_3D('',#443,#368,#369);
#316=AXIS2_PLACEMENT_3D('',#446,#371,#372);
#317=AXIS2_PLACEMENT_3D('',#447,#373,#374);
#318=AXIS2_PLACEMENT_3D('',#453,#378,#379);
#319=AXIS2_PLACEMENT_3D('',#461,#384,#385);
#320=AXIS2_PLACEMENT_3D('',#469,#390,#391);
#321=AXIS2_PLACEMENT_3D('',#472,#394,#395);
#322=AXIS2_PLACEMENT_3D('',#473,#396,#397);
#323=AXIS2_PLACEMENT_3D('',#475,#399,#400);
#324=DIRECTION('axis',(0.,0.,1.));
#325=DIRECTION('refdir',(1.,0.,0.));
#326=DIRECTION('center_axis',(-3.94430452610506E-32,0.,-1.));
#327=DIRECTION('ref_axis',(-1.,0.,3.94430452610506E-32));
#328=DIRECTION('center_axis',(-3.94430452610506E-32,0.,-1.));
#329=DIRECTION('ref_axis',(-1.,0.,3.94430452610506E-32));
#330=DIRECTION('',(-0.857167300702112,1.04972719113862E-16,0.515038074910054));
#331=DIRECTION('center_axis',(-3.94430452610506E-32,0.,-1.));
#332=DIRECTION('ref_axis',(-1.,0.,3.94430452610506E-32));
#333=DIRECTION('center_axis',(3.94430452610506E-32,0.,1.));
#334=DIRECTION('ref_axis',(-1.,0.,3.94430452610506E-32));
#335=DIRECTION('',(3.94430452610506E-32,0.,1.));
#336=DIRECTION('center_axis',(-3.94430452610506E-32,0.,-1.));
#337=DIRECTION('ref_axis',(-1.,0.,3.94430452610506E-32));
#338=DIRECTION('center_axis',(-3.94430452610506E-32,0.,-1.));
#339=DIRECTION('ref_axis',(-1.,0.,3.94430452610506E-32));
#340=DIRECTION('',(-0.857167300702112,1.04972719113862E-16,0.515038074910054));
#341=DIRECTION('center_axis',(-3.94430452610506E-32,0.,-1.));
#342=DIRECTION('ref_axis',(-1.,0.,3.94430452610506E-32));
#343=DIRECTION('center_axis',(3.94430452610506E-32,0.,1.));
#344=DIRECTION('ref_axis',(-1.,0.,3.94430452610506E-32));
#345=DIRECTION('',(3.94430452610506E-32,0.,1.));
#346=DIRECTION('center_axis',(0.,-1.,0.));
#347=DIRECTION('ref_axis',(0.707106781186547,0.,-0.707106781186548));
#348=DIRECTION('center_axis',(0.,1.,0.));
#349=DIRECTION('ref_axis',(0.707106781186547,0.,-0.707106781186548));
#350=DIRECTION('',(0.,-1.,0.));
#351=DIRECTION('center_axis',(0.,-1.,0.));
#352=DIRECTION('ref_axis',(0.707106781186547,0.,-0.707106781186548));
#353=DIRECTION('',(0.,1.,0.));
#354=DIRECTION('center_axis',(0.,0.,-1.));
#355=DIRECTION('ref_axis',(1.,0.,0.));
#356=DIRECTION('',(1.,0.,0.));
#357=DIRECTION('',(0.,1.,0.));
#358=DIRECTION('',(-1.,0.,0.));
#359=DIRECTION('center_axis',(0.,0.,-1.));
#360=DIRECTION('ref_axis',(1.,0.,0.));
#361=DIRECTION('center_axis',(0.,0.,-1.));
#362=DIRECTION('ref_axis',(1.,0.,0.));
#363=DIRECTION('center_axis',(0.,0.,1.));
#364=DIRECTION('ref_axis',(1.,0.,0.));
#365=DIRECTION('',(0.,0.,-1.));
#366=DIRECTION('center_axis',(3.94430452610506E-32,0.,1.));
#367=DIRECTION('ref_axis',(1.,0.,0.));
#368=DIRECTION('center_axis',(0.,0.,1.));
#369=DIRECTION('ref_axis',(1.,0.,0.));
#370=DIRECTION('',(0.,0.,-1.));
#371=DIRECTION('center_axis',(3.94430452610506E-32,0.,1.));
#372=DIRECTION('ref_axis',(1.,0.,0.));
#373=DIRECTION('center_axis',(1.,0.,1.77635683940025E-16));
#374=DIRECTION('ref_axis',(-1.77635683940025E-16,0.,1.));
#375=DIRECTION('',(1.77635683940025E-16,0.,-1.));
#376=DIRECTION('',(0.,-1.,0.));
#377=DIRECTION('',(-1.77635683940025E-16,0.,1.));
#378=DIRECTION('center_axis',(0.,-1.,0.));
#379=DIRECTION('ref_axis',(0.,0.,-1.));
#380=DIRECTION('',(3.94745964311167E-16,0.,1.));
#381=DIRECTION('',(-1.,0.,3.94430452610506E-32));
#382=DIRECTION('',(-5.9211894646675E-16,0.,-1.));
#383=DIRECTION('',(1.,0.,0.));
#384=DIRECTION('center_axis',(0.,1.,0.));
#385=DIRECTION('ref_axis',(0.,0.,1.));
#386=DIRECTION('',(1.,0.,0.));
#387=DIRECTION('',(-5.9211894646675E-16,0.,-1.));
#388=DIRECTION('',(-1.,0.,3.94430452610506E-32));
#389=DIRECTION('',(3.94745964311167E-16,0.,1.));
#390=DIRECTION('center_axis',(1.,0.,-5.9211894646675E-16));
#391=DIRECTION('ref_axis',(-5.9211894646675E-16,0.,-1.));
#392=DIRECTION('',(0.,1.,0.));
#393=DIRECTION('',(0.,1.,0.));
#394=DIRECTION('center_axis',(0.,0.,1.));
#395=DIRECTION('ref_axis',(1.,0.,0.));
#396=DIRECTION('center_axis',(-1.,0.,3.94745964311167E-16));
#397=DIRECTION('ref_axis',(3.94745964311167E-16,0.,1.));
#398=DIRECTION('',(0.,1.,0.));
#399=DIRECTION('center_axis',(-3.94430452610506E-32,0.,-1.));
#400=DIRECTION('ref_axis',(-1.,0.,3.94430452610506E-32));
#401=CARTESIAN_POINT('',(0.,0.,0.));
#402=CARTESIAN_POINT('Origin',(-9.99999999999998,25.,11.2017212380551));
#403=CARTESIAN_POINT('',(-5.99999999999998,25.,10.));
#404=CARTESIAN_POINT('Origin',(-9.99999999999998,25.,10.));
#405=CARTESIAN_POINT('',(-9.99999999999998,25.,12.4034424761102));
#406=CARTESIAN_POINT('',(-7.99999999999998,25.,11.2017212380551));
#407=CARTESIAN_POINT('Origin',(-9.99999999999998,25.,5.));
#408=CARTESIAN_POINT('',(-5.99999999999998,25.,0.));
#409=CARTESIAN_POINT('Origin',(-9.99999999999998,25.,0.));
#410=CARTESIAN_POINT('',(-5.99999999999998,25.,5.));
#411=CARTESIAN_POINT('Origin',(-40.,25.,11.2017212380551));
#412=CARTESIAN_POINT('',(-36.,25.,10.));
#413=CARTESIAN_POINT('Origin',(-40.,25.,10.));
#414=CARTESIAN_POINT('',(-40.,25.,12.4034424761102));
#415=CARTESIAN_POINT('',(-38.,25.,11.2017212380551));
#416=CARTESIAN_POINT('Origin',(-40.,25.,5.));
#417=CARTESIAN_POINT('',(-36.,25.,0.));
#418=CARTESIAN_POINT('Origin',(-40.,25.,0.));
#419=CARTESIAN_POINT('',(-36.,25.,5.));
#420=CARTESIAN_POINT('Origin',(-45.,45.,30.));
#421=CARTESIAN_POINT('',(-35.,45.,30.));
#422=CARTESIAN_POINT('',(-45.,45.,20.));
#423=CARTESIAN_POINT('Origin',(-45.,45.,30.));
#424=CARTESIAN_POINT('',(-45.,0.,20.));
#425=CARTESIAN_POINT('',(-45.,45.,20.));
#426=CARTESIAN_POINT('',(-35.,0.,30.));
#427=CARTESIAN_POINT('Origin',(-45.,0.,30.));
#428=CARTESIAN_POINT('',(-35.,45.,30.));
#429=CARTESIAN_POINT('Origin',(-100.,45.,20.));
#430=CARTESIAN_POINT('',(-100.,45.,20.));
#431=CARTESIAN_POINT('',(-75.,45.,20.));
#432=CARTESIAN_POINT('',(-100.,0.,20.));
#433=CARTESIAN_POINT('',(-100.,22.5,20.));
#434=CARTESIAN_POINT('',(-75.,0.,20.));
#435=CARTESIAN_POINT('',(-57.5,25.,20.));
#436=CARTESIAN_POINT('Origin',(-53.,25.,20.));
#437=CARTESIAN_POINT('',(-97.5,25.,20.));
#438=CARTESIAN_POINT('Origin',(-93.,25.,20.));
#439=CARTESIAN_POINT('Origin',(-93.,25.,20.));
#440=CARTESIAN_POINT('',(-97.5,25.,0.));
#441=CARTESIAN_POINT('',(-97.5,25.,20.));
#442=CARTESIAN_POINT('Origin',(-93.,25.,0.));
#443=CARTESIAN_POINT('Origin',(-53.,25.,20.));
#444=CARTESIAN_POINT('',(-57.5,25.,0.));
#445=CARTESIAN_POINT('',(-57.5,25.,20.));
#446=CARTESIAN_POINT('Origin',(-53.,25.,0.));
#447=CARTESIAN_POINT('Origin',(-35.,45.,20.));
#448=CARTESIAN_POINT('',(-35.,0.,45.));
#449=CARTESIAN_POINT('',(-35.,0.,21.25));
#450=CARTESIAN_POINT('',(-35.,45.,45.));
#451=CARTESIAN_POINT('',(-35.,22.5,45.));
#452=CARTESIAN_POINT('',(-35.,45.,21.25));
#453=CARTESIAN_POINT('Origin',(-50.,0.,22.5));
#454=CARTESIAN_POINT('',(-100.,0.,3.94430452610506E-30));
#455=CARTESIAN_POINT('',(-100.,0.,3.94430452610506E-30));
#456=CARTESIAN_POINT('',(0.,0.,0.));
#457=CARTESIAN_POINT('',(0.,0.,0.));
#458=CARTESIAN_POINT('',(2.66453525910038E-14,0.,45.));
#459=CARTESIAN_POINT('',(2.66453525910038E-14,0.,45.));
#460=CARTESIAN_POINT('',(-100.,0.,45.));
#461=CARTESIAN_POINT('Origin',(-50.,45.,22.5));
#462=CARTESIAN_POINT('',(2.66453525910038E-14,45.,45.));
#463=CARTESIAN_POINT('',(-100.,45.,45.));
#464=CARTESIAN_POINT('',(0.,45.,0.));
#465=CARTESIAN_POINT('',(2.66453525910038E-14,45.,45.));
#466=CARTESIAN_POINT('',(-100.,45.,3.94430452610506E-30));
#467=CARTESIAN_POINT('',(0.,45.,0.));
#468=CARTESIAN_POINT('',(-100.,45.,3.94430452610506E-30));
#469=CARTESIAN_POINT('Origin',(2.66453525910038E-14,0.,45.));
#470=CARTESIAN_POINT('',(0.,0.,0.));
#471=CARTESIAN_POINT('',(2.66453525910038E-14,0.,45.));
#472=CARTESIAN_POINT('Origin',(-100.,0.,45.));
#473=CARTESIAN_POINT('Origin',(-100.,0.,3.94430452610506E-30));
#474=CARTESIAN_POINT('',(-100.,0.,3.94430452610506E-30));
#475=CARTESIAN_POINT('Origin',(0.,0.,0.));
#476=UNCERTAINTY_MEASURE_WITH_UNIT(LENGTH_MEASURE(0.01),#480,
'DISTANCE_ACCURACY_VALUE',
'Maximum model space distance between geometric entities at asserted c
onnectivities');
#477=UNCERTAINTY_MEASURE_WITH_UNIT(LENGTH_MEASURE(0.01),#480,
'DISTANCE_ACCURACY_VALUE',
'Maximum model space distance between geometric entities at asserted c
onnectivities');
#478=(
GEOMETRIC_REPRESENTATION_CONTEXT(3)
GLOBAL_UNCERTAINTY_ASSIGNED_CONTEXT((#476))
GLOBAL_UNIT_ASSIGNED_CONTEXT((#480,#482,#483))
REPRESENTATION_CONTEXT('','3D')
);
#479=(
GEOMETRIC_REPRESENTATION_CONTEXT(3)
GLOBAL_UNCERTAINTY_ASSIGNED_CONTEXT((#477))
GLOBAL_UNIT_ASSIGNED_CONTEXT((#480,#482,#483))
REPRESENTATION_CONTEXT('','3D')
);
#480=(
LENGTH_UNIT()
NAMED_UNIT(*)
SI_UNIT(.MILLI.,.METRE.)
);
#481=(
LENGTH_UNIT()
NAMED_UNIT(*)
SI_UNIT(.CENTI.,.METRE.)
);
#482=(
NAMED_UNIT(*)
PLANE_ANGLE_UNIT()
SI_UNIT($,.RADIAN.)
);
#483=(
NAMED_UNIT(*)
SI_UNIT($,.STERADIAN.)
SOLID_ANGLE_UNIT()
);
#484=SHAPE_DEFINITION_REPRESENTATION(#485,#486);
#485=PRODUCT_DEFINITION_SHAPE('',$,#488);
#486=SHAPE_REPRESENTATION('',(#298),#478);
#487=PRODUCT_DEFINITION_CONTEXT('part definition',#492,'design');
#488=PRODUCT_DEFINITION('00039668','00039668',#489,#487);
#489=PRODUCT_DEFINITION_FORMATION('',$,#494);
#490=PRODUCT_RELATED_PRODUCT_CATEGORY('00039668','00039668',(#494));
#491=APPLICATION_PROTOCOL_DEFINITION('international standard',
'automotive_design',2009,#492);
#492=APPLICATION_CONTEXT(
'Core Data for Automotive Mechanical Design Process');
#493=PRODUCT_CONTEXT('part definition',#492,'mechanical');
#494=PRODUCT('00039668','00039668','Anschlag',(#493));
#495=PRESENTATION_STYLE_ASSIGNMENT((#496));
#496=SURFACE_STYLE_USAGE(.BOTH.,#499);
#497=SURFACE_STYLE_RENDERING_WITH_PROPERTIES($,#503,(#498));
#498=SURFACE_STYLE_TRANSPARENT(0.);
#499=SURFACE_SIDE_STYLE('',(#500,#497));
#500=SURFACE_STYLE_FILL_AREA(#501);
#501=FILL_AREA_STYLE('',(#502));
#502=FILL_AREA_STYLE_COLOUR('',#503);
#503=COLOUR_RGB('',0.301960784313725,0.411764705882353,0.509803921568627);
ENDSEC;
END-ISO-10303-21;
