ISO-10303-21;
HEADER;
/* Generated by software containing ST-Developer
 * from STEP Tools, Inc. (www.steptools.com) 
 */

FILE_DESCRIPTION(
/* description */ ('Zwischenst\X\FCck'),
/* implementation_level */ '2;1');

FILE_NAME(
/* name */ '00055848.stp',
/* time_stamp */ '2023-08-24T13:50:09+02:00',
/* author */ ('MD24'),
/* organization */ (''),
/* preprocessor_version */ 'ST-DEVELOPER v19.2',
/* originating_system */ 'Autodesk Inventor 2023',
/* authorisation */ '');

FILE_SCHEMA (('AUTOMOTIVE_DESIGN { 1 0 10303 214 3 1 1 }'));
ENDSEC;

DATA;
#10=MECHANICAL_DESIGN_GEOMETRIC_PRESENTATION_REPRESENTATION('',(#13),#635);
#11=SHAPE_REPRESENTATION_RELATIONSHIP('SRR','None',#642,#12);
#12=ADVANCED_BREP_SHAPE_REPRESENTATION('',(#14),#634);
#13=STYLED_ITEM('',(#651),#14);
#14=MANIFOLD_SOLID_BREP('Volumenk\X\F6rper1',#340);
#15=TOROIDAL_SURFACE('',#394,7.80000000000003,0.2);
#16=TOROIDAL_SURFACE('',#401,7.80000000000003,0.2);
#17=(
BOUNDED_CURVE()
B_SPLINE_CURVE(2,(#570,#571,#572),.UNSPECIFIED.,.F.,.F.)
B_SPLINE_CURVE_WITH_KNOTS((3,3),(0.,0.163284329915254),.UNSPECIFIED.)
CURVE()
GEOMETRIC_REPRESENTATION_ITEM()
RATIONAL_B_SPLINE_CURVE((1.,1.0092459018043,1.01697124416595))
REPRESENTATION_ITEM('')
);
#18=(
BOUNDED_CURVE()
B_SPLINE_CURVE(2,(#574,#575,#576),.UNSPECIFIED.,.F.,.F.)
B_SPLINE_CURVE_WITH_KNOTS((3,3),(1.82244649815159,1.98573082806685),
 .UNSPECIFIED.)
CURVE()
GEOMETRIC_REPRESENTATION_ITEM()
RATIONAL_B_SPLINE_CURVE((1.01697124416595,1.0092459018043,1.))
REPRESENTATION_ITEM('')
);
#19=(
BOUNDED_CURVE()
B_SPLINE_CURVE(2,(#581,#582,#583),.UNSPECIFIED.,.F.,.F.)
B_SPLINE_CURVE_WITH_KNOTS((3,3),(0.,0.163284329915254),.UNSPECIFIED.)
CURVE()
GEOMETRIC_REPRESENTATION_ITEM()
RATIONAL_B_SPLINE_CURVE((1.,1.0092459018043,1.01697124416595))
REPRESENTATION_ITEM('')
);
#20=(
BOUNDED_CURVE()
B_SPLINE_CURVE(2,(#587,#588,#589),.UNSPECIFIED.,.F.,.F.)
B_SPLINE_CURVE_WITH_KNOTS((3,3),(1.8224464981516,1.98573082806685),
 .UNSPECIFIED.)
CURVE()
GEOMETRIC_REPRESENTATION_ITEM()
RATIONAL_B_SPLINE_CURVE((1.01697124416596,1.0092459018043,1.))
REPRESENTATION_ITEM('')
);
#21=FACE_BOUND('',#57,.T.);
#22=FACE_BOUND('',#75,.T.);
#23=PLANE('',#369);
#24=PLANE('',#383);
#25=PLANE('',#386);
#26=PLANE('',#387);
#27=PLANE('',#388);
#28=PLANE('',#408);
#29=PLANE('',#409);
#30=CYLINDRICAL_SURFACE('',#367,7.188);
#31=CYLINDRICAL_SURFACE('',#375,12.5);
#32=CYLINDRICAL_SURFACE('',#398,7.60000000000003);
#33=CYLINDRICAL_SURFACE('',#407,8.);
#34=FACE_OUTER_BOUND('',#54,.T.);
#35=FACE_OUTER_BOUND('',#55,.T.);
#36=FACE_OUTER_BOUND('',#56,.T.);
#37=FACE_OUTER_BOUND('',#58,.T.);
#38=FACE_OUTER_BOUND('',#59,.T.);
#39=FACE_OUTER_BOUND('',#60,.T.);
#40=FACE_OUTER_BOUND('',#61,.T.);
#41=FACE_OUTER_BOUND('',#62,.T.);
#42=FACE_OUTER_BOUND('',#63,.T.);
#43=FACE_OUTER_BOUND('',#64,.T.);
#44=FACE_OUTER_BOUND('',#65,.T.);
#45=FACE_OUTER_BOUND('',#66,.T.);
#46=FACE_OUTER_BOUND('',#67,.T.);
#47=FACE_OUTER_BOUND('',#68,.T.);
#48=FACE_OUTER_BOUND('',#69,.T.);
#49=FACE_OUTER_BOUND('',#70,.T.);
#50=FACE_OUTER_BOUND('',#71,.T.);
#51=FACE_OUTER_BOUND('',#72,.T.);
#52=FACE_OUTER_BOUND('',#73,.T.);
#53=FACE_OUTER_BOUND('',#74,.T.);
#54=EDGE_LOOP('',(#217,#218,#219,#220,#221));
#55=EDGE_LOOP('',(#222,#223,#224,#225,#226));
#56=EDGE_LOOP('',(#227));
#57=EDGE_LOOP('',(#228));
#58=EDGE_LOOP('',(#229,#230,#231));
#59=EDGE_LOOP('',(#232,#233,#234,#235,#236));
#60=EDGE_LOOP('',(#237,#238,#239,#240,#241,#242,#243,#244,#245,#246,#247,
#248,#249));
#61=EDGE_LOOP('',(#250,#251,#252,#253));
#62=EDGE_LOOP('',(#254,#255,#256,#257,#258,#259));
#63=EDGE_LOOP('',(#260,#261,#262,#263));
#64=EDGE_LOOP('',(#264,#265,#266,#267,#268,#269));
#65=EDGE_LOOP('',(#270,#271));
#66=EDGE_LOOP('',(#272,#273,#274));
#67=EDGE_LOOP('',(#275,#276,#277,#278,#279,#280));
#68=EDGE_LOOP('',(#281,#282,#283,#284,#285,#286));
#69=EDGE_LOOP('',(#287,#288,#289,#290,#291,#292));
#70=EDGE_LOOP('',(#293,#294,#295,#296,#297));
#71=EDGE_LOOP('',(#298,#299,#300,#301));
#72=EDGE_LOOP('',(#302,#303,#304,#305,#306));
#73=EDGE_LOOP('',(#307));
#74=EDGE_LOOP('',(#308,#309,#310,#311));
#75=EDGE_LOOP('',(#312));
#76=LINE('',#528,#93);
#77=LINE('',#534,#94);
#78=LINE('',#541,#95);
#79=LINE('',#547,#96);
#80=LINE('',#553,#97);
#81=LINE('',#557,#98);
#82=LINE('',#561,#99);
#83=LINE('',#564,#100);
#84=LINE('',#567,#101);
#85=LINE('',#579,#102);
#86=LINE('',#584,#103);
#87=LINE('',#592,#104);
#88=LINE('',#593,#105);
#89=LINE('',#602,#106);
#90=LINE('',#617,#107);
#91=LINE('',#626,#108);
#92=LINE('',#629,#109);
#93=VECTOR('',#416,7.688);
#94=VECTOR('',#423,7.188);
#95=VECTOR('',#432,3.594);
#96=VECTOR('',#439,12.25);
#97=VECTOR('',#444,10.);
#98=VECTOR('',#447,10.);
#99=VECTOR('',#450,10.);
#100=VECTOR('',#453,12.5);
#101=VECTOR('',#456,10.);
#102=VECTOR('',#463,10.);
#103=VECTOR('',#464,10.);
#104=VECTOR('',#471,10.);
#105=VECTOR('',#472,10.);
#106=VECTOR('',#483,7.81339745962158);
#107=VECTOR('',#502,7.60000000000003);
#108=VECTOR('',#513,7.5);
#109=VECTOR('',#518,8.);
#110=CIRCLE('',#364,8.188);
#111=CIRCLE('',#365,7.188);
#112=CIRCLE('',#366,7.188);
#113=CIRCLE('',#368,7.188);
#114=CIRCLE('',#370,12.);
#115=CIRCLE('',#373,12.5);
#116=CIRCLE('',#374,12.5);
#117=CIRCLE('',#376,12.5);
#118=CIRCLE('',#377,12.5);
#119=CIRCLE('',#378,12.5);
#120=CIRCLE('',#379,12.5);
#121=CIRCLE('',#380,12.5);
#122=CIRCLE('',#382,12.);
#123=CIRCLE('',#385,12.);
#124=CIRCLE('',#390,7.62679491924315);
#125=CIRCLE('',#391,7.62679491924315);
#126=CIRCLE('',#392,8.);
#127=CIRCLE('',#393,8.);
#128=CIRCLE('',#395,0.2);
#129=CIRCLE('',#396,7.60000000000003);
#130=CIRCLE('',#397,7.60000000000003);
#131=CIRCLE('',#399,7.60000000000003);
#132=CIRCLE('',#400,7.60000000000003);
#133=CIRCLE('',#402,0.2);
#134=CIRCLE('',#403,7.80000000000003);
#135=CIRCLE('',#405,7.);
#136=CIRCLE('',#406,8.);
#137=VERTEX_POINT('',#525);
#138=VERTEX_POINT('',#527);
#139=VERTEX_POINT('',#529);
#140=VERTEX_POINT('',#533);
#141=VERTEX_POINT('',#537);
#142=VERTEX_POINT('',#540);
#143=VERTEX_POINT('',#543);
#144=VERTEX_POINT('',#544);
#145=VERTEX_POINT('',#549);
#146=VERTEX_POINT('',#550);
#147=VERTEX_POINT('',#552);
#148=VERTEX_POINT('',#554);
#149=VERTEX_POINT('',#556);
#150=VERTEX_POINT('',#558);
#151=VERTEX_POINT('',#560);
#152=VERTEX_POINT('',#562);
#153=VERTEX_POINT('',#565);
#154=VERTEX_POINT('',#569);
#155=VERTEX_POINT('',#573);
#156=VERTEX_POINT('',#580);
#157=VERTEX_POINT('',#586);
#158=VERTEX_POINT('',#597);
#159=VERTEX_POINT('',#598);
#160=VERTEX_POINT('',#601);
#161=VERTEX_POINT('',#603);
#162=VERTEX_POINT('',#607);
#163=VERTEX_POINT('',#609);
#164=VERTEX_POINT('',#613);
#165=VERTEX_POINT('',#614);
#166=VERTEX_POINT('',#619);
#167=VERTEX_POINT('',#623);
#168=VERTEX_POINT('',#625);
#169=EDGE_CURVE('',#137,#137,#110,.T.);
#170=EDGE_CURVE('',#137,#138,#76,.T.);
#171=EDGE_CURVE('',#138,#139,#111,.T.);
#172=EDGE_CURVE('',#139,#138,#112,.T.);
#173=EDGE_CURVE('',#139,#140,#77,.T.);
#174=EDGE_CURVE('',#140,#140,#113,.T.);
#175=EDGE_CURVE('',#141,#141,#114,.T.);
#176=EDGE_CURVE('',#140,#142,#78,.T.);
#177=EDGE_CURVE('',#143,#144,#115,.T.);
#178=EDGE_CURVE('',#144,#143,#116,.T.);
#179=EDGE_CURVE('',#143,#141,#79,.T.);
#180=EDGE_CURVE('',#145,#146,#117,.T.);
#181=EDGE_CURVE('',#145,#147,#80,.T.);
#182=EDGE_CURVE('',#147,#148,#118,.T.);
#183=EDGE_CURVE('',#148,#149,#81,.T.);
#184=EDGE_CURVE('',#150,#149,#119,.T.);
#185=EDGE_CURVE('',#150,#151,#82,.T.);
#186=EDGE_CURVE('',#151,#152,#120,.T.);
#187=EDGE_CURVE('',#152,#144,#83,.T.);
#188=EDGE_CURVE('',#152,#153,#121,.T.);
#189=EDGE_CURVE('',#153,#146,#84,.T.);
#190=EDGE_CURVE('',#154,#145,#17,.T.);
#191=EDGE_CURVE('',#146,#155,#18,.T.);
#192=EDGE_CURVE('',#155,#154,#122,.T.);
#193=EDGE_CURVE('',#153,#151,#85,.T.);
#194=EDGE_CURVE('',#156,#150,#19,.T.);
#195=EDGE_CURVE('',#155,#156,#86,.T.);
#196=EDGE_CURVE('',#149,#157,#20,.T.);
#197=EDGE_CURVE('',#157,#156,#123,.T.);
#198=EDGE_CURVE('',#157,#154,#87,.T.);
#199=EDGE_CURVE('',#148,#147,#88,.T.);
#200=EDGE_CURVE('',#158,#159,#124,.T.);
#201=EDGE_CURVE('',#159,#158,#125,.T.);
#202=EDGE_CURVE('',#158,#160,#89,.T.);
#203=EDGE_CURVE('',#161,#160,#126,.T.);
#204=EDGE_CURVE('',#160,#161,#127,.T.);
#205=EDGE_CURVE('',#159,#162,#128,.T.);
#206=EDGE_CURVE('',#162,#163,#129,.T.);
#207=EDGE_CURVE('',#163,#162,#130,.T.);
#208=EDGE_CURVE('',#164,#165,#131,.T.);
#209=EDGE_CURVE('',#165,#164,#132,.T.);
#210=EDGE_CURVE('',#164,#163,#90,.T.);
#211=EDGE_CURVE('',#165,#166,#133,.T.);
#212=EDGE_CURVE('',#166,#166,#134,.T.);
#213=EDGE_CURVE('',#167,#167,#135,.T.);
#214=EDGE_CURVE('',#167,#168,#91,.T.);
#215=EDGE_CURVE('',#168,#168,#136,.T.);
#216=EDGE_CURVE('',#168,#161,#92,.T.);
#217=ORIENTED_EDGE('',*,*,#169,.T.);
#218=ORIENTED_EDGE('',*,*,#170,.T.);
#219=ORIENTED_EDGE('',*,*,#171,.T.);
#220=ORIENTED_EDGE('',*,*,#172,.T.);
#221=ORIENTED_EDGE('',*,*,#170,.F.);
#222=ORIENTED_EDGE('',*,*,#171,.F.);
#223=ORIENTED_EDGE('',*,*,#172,.F.);
#224=ORIENTED_EDGE('',*,*,#173,.T.);
#225=ORIENTED_EDGE('',*,*,#174,.F.);
#226=ORIENTED_EDGE('',*,*,#173,.F.);
#227=ORIENTED_EDGE('',*,*,#175,.F.);
#228=ORIENTED_EDGE('',*,*,#169,.F.);
#229=ORIENTED_EDGE('',*,*,#174,.T.);
#230=ORIENTED_EDGE('',*,*,#176,.T.);
#231=ORIENTED_EDGE('',*,*,#176,.F.);
#232=ORIENTED_EDGE('',*,*,#177,.T.);
#233=ORIENTED_EDGE('',*,*,#178,.T.);
#234=ORIENTED_EDGE('',*,*,#179,.T.);
#235=ORIENTED_EDGE('',*,*,#175,.T.);
#236=ORIENTED_EDGE('',*,*,#179,.F.);
#237=ORIENTED_EDGE('',*,*,#180,.F.);
#238=ORIENTED_EDGE('',*,*,#181,.T.);
#239=ORIENTED_EDGE('',*,*,#182,.T.);
#240=ORIENTED_EDGE('',*,*,#183,.T.);
#241=ORIENTED_EDGE('',*,*,#184,.F.);
#242=ORIENTED_EDGE('',*,*,#185,.T.);
#243=ORIENTED_EDGE('',*,*,#186,.T.);
#244=ORIENTED_EDGE('',*,*,#187,.T.);
#245=ORIENTED_EDGE('',*,*,#177,.F.);
#246=ORIENTED_EDGE('',*,*,#178,.F.);
#247=ORIENTED_EDGE('',*,*,#187,.F.);
#248=ORIENTED_EDGE('',*,*,#188,.T.);
#249=ORIENTED_EDGE('',*,*,#189,.T.);
#250=ORIENTED_EDGE('',*,*,#190,.T.);
#251=ORIENTED_EDGE('',*,*,#180,.T.);
#252=ORIENTED_EDGE('',*,*,#191,.T.);
#253=ORIENTED_EDGE('',*,*,#192,.T.);
#254=ORIENTED_EDGE('',*,*,#191,.F.);
#255=ORIENTED_EDGE('',*,*,#189,.F.);
#256=ORIENTED_EDGE('',*,*,#193,.T.);
#257=ORIENTED_EDGE('',*,*,#185,.F.);
#258=ORIENTED_EDGE('',*,*,#194,.F.);
#259=ORIENTED_EDGE('',*,*,#195,.F.);
#260=ORIENTED_EDGE('',*,*,#194,.T.);
#261=ORIENTED_EDGE('',*,*,#184,.T.);
#262=ORIENTED_EDGE('',*,*,#196,.T.);
#263=ORIENTED_EDGE('',*,*,#197,.T.);
#264=ORIENTED_EDGE('',*,*,#190,.F.);
#265=ORIENTED_EDGE('',*,*,#198,.F.);
#266=ORIENTED_EDGE('',*,*,#196,.F.);
#267=ORIENTED_EDGE('',*,*,#183,.F.);
#268=ORIENTED_EDGE('',*,*,#199,.T.);
#269=ORIENTED_EDGE('',*,*,#181,.F.);
#270=ORIENTED_EDGE('',*,*,#182,.F.);
#271=ORIENTED_EDGE('',*,*,#199,.F.);
#272=ORIENTED_EDGE('',*,*,#186,.F.);
#273=ORIENTED_EDGE('',*,*,#193,.F.);
#274=ORIENTED_EDGE('',*,*,#188,.F.);
#275=ORIENTED_EDGE('',*,*,#200,.T.);
#276=ORIENTED_EDGE('',*,*,#201,.T.);
#277=ORIENTED_EDGE('',*,*,#202,.T.);
#278=ORIENTED_EDGE('',*,*,#203,.F.);
#279=ORIENTED_EDGE('',*,*,#204,.F.);
#280=ORIENTED_EDGE('',*,*,#202,.F.);
#281=ORIENTED_EDGE('',*,*,#200,.F.);
#282=ORIENTED_EDGE('',*,*,#201,.F.);
#283=ORIENTED_EDGE('',*,*,#205,.T.);
#284=ORIENTED_EDGE('',*,*,#206,.T.);
#285=ORIENTED_EDGE('',*,*,#207,.T.);
#286=ORIENTED_EDGE('',*,*,#205,.F.);
#287=ORIENTED_EDGE('',*,*,#208,.T.);
#288=ORIENTED_EDGE('',*,*,#209,.T.);
#289=ORIENTED_EDGE('',*,*,#210,.T.);
#290=ORIENTED_EDGE('',*,*,#206,.F.);
#291=ORIENTED_EDGE('',*,*,#207,.F.);
#292=ORIENTED_EDGE('',*,*,#210,.F.);
#293=ORIENTED_EDGE('',*,*,#208,.F.);
#294=ORIENTED_EDGE('',*,*,#209,.F.);
#295=ORIENTED_EDGE('',*,*,#211,.T.);
#296=ORIENTED_EDGE('',*,*,#212,.T.);
#297=ORIENTED_EDGE('',*,*,#211,.F.);
#298=ORIENTED_EDGE('',*,*,#213,.T.);
#299=ORIENTED_EDGE('',*,*,#214,.T.);
#300=ORIENTED_EDGE('',*,*,#215,.T.);
#301=ORIENTED_EDGE('',*,*,#214,.F.);
#302=ORIENTED_EDGE('',*,*,#215,.F.);
#303=ORIENTED_EDGE('',*,*,#216,.T.);
#304=ORIENTED_EDGE('',*,*,#203,.T.);
#305=ORIENTED_EDGE('',*,*,#204,.T.);
#306=ORIENTED_EDGE('',*,*,#216,.F.);
#307=ORIENTED_EDGE('',*,*,#213,.F.);
#308=ORIENTED_EDGE('',*,*,#192,.F.);
#309=ORIENTED_EDGE('',*,*,#195,.T.);
#310=ORIENTED_EDGE('',*,*,#197,.F.);
#311=ORIENTED_EDGE('',*,*,#198,.T.);
#312=ORIENTED_EDGE('',*,*,#212,.F.);
#313=CONICAL_SURFACE('',#363,7.688,0.785398163397448);
#314=CONICAL_SURFACE('',#371,3.594,1.02974425867665);
#315=CONICAL_SURFACE('',#372,12.25,0.785398163397449);
#316=CONICAL_SURFACE('',#381,12.25,0.785398163397451);
#317=CONICAL_SURFACE('',#384,12.25,0.785398163397451);
#318=CONICAL_SURFACE('',#389,7.81339745962158,0.523598775598292);
#319=CONICAL_SURFACE('',#404,7.5,0.78539816339745);
#320=ADVANCED_FACE('',(#34),#313,.F.);
#321=ADVANCED_FACE('',(#35),#30,.F.);
#322=ADVANCED_FACE('',(#36,#21),#23,.F.);
#323=ADVANCED_FACE('',(#37),#314,.F.);
#324=ADVANCED_FACE('',(#38),#315,.T.);
#325=ADVANCED_FACE('',(#39),#31,.T.);
#326=ADVANCED_FACE('',(#40),#316,.T.);
#327=ADVANCED_FACE('',(#41),#24,.F.);
#328=ADVANCED_FACE('',(#42),#317,.T.);
#329=ADVANCED_FACE('',(#43),#25,.F.);
#330=ADVANCED_FACE('',(#44),#26,.T.);
#331=ADVANCED_FACE('',(#45),#27,.T.);
#332=ADVANCED_FACE('',(#46),#318,.T.);
#333=ADVANCED_FACE('',(#47),#15,.F.);
#334=ADVANCED_FACE('',(#48),#32,.T.);
#335=ADVANCED_FACE('',(#49),#16,.F.);
#336=ADVANCED_FACE('',(#50),#319,.T.);
#337=ADVANCED_FACE('',(#51),#33,.T.);
#338=ADVANCED_FACE('',(#52),#28,.T.);
#339=ADVANCED_FACE('',(#53,#22),#29,.T.);
#340=CLOSED_SHELL('',(#320,#321,#322,#323,#324,#325,#326,#327,#328,#329,
#330,#331,#332,#333,#334,#335,#336,#337,#338,#339));
#341=DERIVED_UNIT_ELEMENT(#344,1.);
#342=DERIVED_UNIT_ELEMENT(#637,-3.);
#343=DIMENSIONAL_EXPONENTS(0.,1.,0.,0.,0.,0.,0.);
#344=(
CONVERSION_BASED_UNIT('gram',#346)
MASS_UNIT()
NAMED_UNIT(#343)
);
#345=(
MASS_UNIT()
NAMED_UNIT(*)
SI_UNIT(.KILO.,.GRAM.)
);
#346=MASS_MEASURE_WITH_UNIT(MASS_MEASURE(0.001),#345);
#347=DERIVED_UNIT((#341,#342));
#348=MEASURE_REPRESENTATION_ITEM('density measure',
POSITIVE_RATIO_MEASURE(7.76),#347);
#349=PROPERTY_DEFINITION_REPRESENTATION(#354,#351);
#350=PROPERTY_DEFINITION_REPRESENTATION(#355,#352);
#351=REPRESENTATION('material name',(#353),#634);
#352=REPRESENTATION('density',(#348),#634);
#353=DESCRIPTIVE_REPRESENTATION_ITEM('16MnCr5 (1.7131)',
'16MnCr5 (1.7131)');
#354=PROPERTY_DEFINITION('material property','material name',#644);
#355=PROPERTY_DEFINITION('material property','density of part',#644);
#356=DATE_TIME_ROLE('creation_date');
#357=APPLIED_DATE_AND_TIME_ASSIGNMENT(#358,#356,(#644));
#358=DATE_AND_TIME(#359,#360);
#359=CALENDAR_DATE(2023,16,8);
#360=LOCAL_TIME(0,0,0.,#361);
#361=COORDINATED_UNIVERSAL_TIME_OFFSET(0,0,.BEHIND.);
#362=AXIS2_PLACEMENT_3D('',#523,#410,#411);
#363=AXIS2_PLACEMENT_3D('',#524,#412,#413);
#364=AXIS2_PLACEMENT_3D('',#526,#414,#415);
#365=AXIS2_PLACEMENT_3D('',#530,#417,#418);
#366=AXIS2_PLACEMENT_3D('',#531,#419,#420);
#367=AXIS2_PLACEMENT_3D('',#532,#421,#422);
#368=AXIS2_PLACEMENT_3D('',#535,#424,#425);
#369=AXIS2_PLACEMENT_3D('',#536,#426,#427);
#370=AXIS2_PLACEMENT_3D('',#538,#428,#429);
#371=AXIS2_PLACEMENT_3D('',#539,#430,#431);
#372=AXIS2_PLACEMENT_3D('',#542,#433,#434);
#373=AXIS2_PLACEMENT_3D('',#545,#435,#436);
#374=AXIS2_PLACEMENT_3D('',#546,#437,#438);
#375=AXIS2_PLACEMENT_3D('',#548,#440,#441);
#376=AXIS2_PLACEMENT_3D('',#551,#442,#443);
#377=AXIS2_PLACEMENT_3D('',#555,#445,#446);
#378=AXIS2_PLACEMENT_3D('',#559,#448,#449);
#379=AXIS2_PLACEMENT_3D('',#563,#451,#452);
#380=AXIS2_PLACEMENT_3D('',#566,#454,#455);
#381=AXIS2_PLACEMENT_3D('',#568,#457,#458);
#382=AXIS2_PLACEMENT_3D('',#577,#459,#460);
#383=AXIS2_PLACEMENT_3D('',#578,#461,#462);
#384=AXIS2_PLACEMENT_3D('',#585,#465,#466);
#385=AXIS2_PLACEMENT_3D('',#590,#467,#468);
#386=AXIS2_PLACEMENT_3D('',#591,#469,#470);
#387=AXIS2_PLACEMENT_3D('',#594,#473,#474);
#388=AXIS2_PLACEMENT_3D('',#595,#475,#476);
#389=AXIS2_PLACEMENT_3D('',#596,#477,#478);
#390=AXIS2_PLACEMENT_3D('',#599,#479,#480);
#391=AXIS2_PLACEMENT_3D('',#600,#481,#482);
#392=AXIS2_PLACEMENT_3D('',#604,#484,#485);
#393=AXIS2_PLACEMENT_3D('',#605,#486,#487);
#394=AXIS2_PLACEMENT_3D('',#606,#488,#489);
#395=AXIS2_PLACEMENT_3D('',#608,#490,#491);
#396=AXIS2_PLACEMENT_3D('',#610,#492,#493);
#397=AXIS2_PLACEMENT_3D('',#611,#494,#495);
#398=AXIS2_PLACEMENT_3D('',#612,#496,#497);
#399=AXIS2_PLACEMENT_3D('',#615,#498,#499);
#400=AXIS2_PLACEMENT_3D('',#616,#500,#501);
#401=AXIS2_PLACEMENT_3D('',#618,#503,#504);
#402=AXIS2_PLACEMENT_3D('',#620,#505,#506);
#403=AXIS2_PLACEMENT_3D('',#621,#507,#508);
#404=AXIS2_PLACEMENT_3D('',#622,#509,#510);
#405=AXIS2_PLACEMENT_3D('',#624,#511,#512);
#406=AXIS2_PLACEMENT_3D('',#627,#514,#515);
#407=AXIS2_PLACEMENT_3D('',#628,#516,#517);
#408=AXIS2_PLACEMENT_3D('',#630,#519,#520);
#409=AXIS2_PLACEMENT_3D('',#631,#521,#522);
#410=DIRECTION('axis',(0.,0.,1.));
#411=DIRECTION('refdir',(1.,0.,0.));
#412=DIRECTION('center_axis',(0.,-1.,0.));
#413=DIRECTION('ref_axis',(-1.,0.,0.));
#414=DIRECTION('center_axis',(0.,-1.,0.));
#415=DIRECTION('ref_axis',(-1.,0.,0.));
#416=DIRECTION('',(-0.707106781186548,0.707106781186548,-8.65956056235493E-17));
#417=DIRECTION('center_axis',(0.,1.,0.));
#418=DIRECTION('ref_axis',(-1.,0.,0.));
#419=DIRECTION('center_axis',(0.,1.,0.));
#420=DIRECTION('ref_axis',(-1.,0.,0.));
#421=DIRECTION('center_axis',(0.,-1.,0.));
#422=DIRECTION('ref_axis',(1.,0.,0.));
#423=DIRECTION('',(0.,1.,0.));
#424=DIRECTION('center_axis',(0.,-1.,0.));
#425=DIRECTION('ref_axis',(1.,0.,0.));
#426=DIRECTION('center_axis',(0.,1.,0.));
#427=DIRECTION('ref_axis',(0.,0.,1.));
#428=DIRECTION('center_axis',(0.,1.,0.));
#429=DIRECTION('ref_axis',(1.,0.,0.));
#430=DIRECTION('center_axis',(0.,-1.,0.));
#431=DIRECTION('ref_axis',(1.,0.,0.));
#432=DIRECTION('',(0.857167300702112,0.515038074910054,1.04972719113862E-16));
#433=DIRECTION('center_axis',(0.,1.,0.));
#434=DIRECTION('ref_axis',(1.,0.,0.));
#435=DIRECTION('center_axis',(0.,-1.,0.));
#436=DIRECTION('ref_axis',(1.,0.,0.));
#437=DIRECTION('center_axis',(0.,-1.,0.));
#438=DIRECTION('ref_axis',(1.,0.,0.));
#439=DIRECTION('',(0.707106781186548,-0.707106781186547,-8.65956056235494E-17));
#440=DIRECTION('center_axis',(0.,1.,0.));
#441=DIRECTION('ref_axis',(-1.,0.,0.));
#442=DIRECTION('center_axis',(0.,1.,0.));
#443=DIRECTION('ref_axis',(-1.,0.,0.));
#444=DIRECTION('',(0.,-1.,0.));
#445=DIRECTION('center_axis',(0.,-1.,0.));
#446=DIRECTION('ref_axis',(-1.,0.,0.));
#447=DIRECTION('',(0.,1.,0.));
#448=DIRECTION('center_axis',(0.,1.,0.));
#449=DIRECTION('ref_axis',(-1.,0.,0.));
#450=DIRECTION('',(0.,-1.,0.));
#451=DIRECTION('center_axis',(0.,-1.,0.));
#452=DIRECTION('ref_axis',(-1.,0.,0.));
#453=DIRECTION('',(0.,-1.,0.));
#454=DIRECTION('center_axis',(0.,-1.,0.));
#455=DIRECTION('ref_axis',(-1.,0.,0.));
#456=DIRECTION('',(0.,1.,0.));
#457=DIRECTION('center_axis',(0.,-1.,0.));
#458=DIRECTION('ref_axis',(-1.,0.,0.));
#459=DIRECTION('center_axis',(0.,-1.,0.));
#460=DIRECTION('ref_axis',(-1.,0.,0.));
#461=DIRECTION('center_axis',(-1.,0.,-3.27386909037879E-16));
#462=DIRECTION('ref_axis',(3.27386909037879E-16,0.,-1.));
#463=DIRECTION('',(3.27386909037879E-16,0.,-1.));
#464=DIRECTION('',(3.27386909037879E-16,0.,-1.));
#465=DIRECTION('center_axis',(0.,-1.,0.));
#466=DIRECTION('ref_axis',(-1.,0.,0.));
#467=DIRECTION('center_axis',(0.,-1.,0.));
#468=DIRECTION('ref_axis',(-1.,0.,0.));
#469=DIRECTION('center_axis',(1.,0.,-3.27386909037879E-16));
#470=DIRECTION('ref_axis',(3.27386909037879E-16,0.,1.));
#471=DIRECTION('',(3.27386909037879E-16,0.,1.));
#472=DIRECTION('',(3.27386909037879E-16,0.,1.));
#473=DIRECTION('center_axis',(0.,1.,0.));
#474=DIRECTION('ref_axis',(0.,0.,1.));
#475=DIRECTION('center_axis',(0.,1.,0.));
#476=DIRECTION('ref_axis',(0.,0.,1.));
#477=DIRECTION('center_axis',(0.,1.,0.));
#478=DIRECTION('ref_axis',(1.,0.,-1.22464679914735E-16));
#479=DIRECTION('center_axis',(0.,1.,0.));
#480=DIRECTION('ref_axis',(1.,0.,-1.22464679914735E-16));
#481=DIRECTION('center_axis',(0.,1.,0.));
#482=DIRECTION('ref_axis',(1.,0.,-1.22464679914735E-16));
#483=DIRECTION('',(-0.499999999999994,0.866025403784442,1.22464679914734E-16));
#484=DIRECTION('center_axis',(0.,1.,0.));
#485=DIRECTION('ref_axis',(-1.,0.,0.));
#486=DIRECTION('center_axis',(0.,1.,0.));
#487=DIRECTION('ref_axis',(-1.,0.,0.));
#488=DIRECTION('center_axis',(0.,1.,0.));
#489=DIRECTION('ref_axis',(0.,0.,1.));
#490=DIRECTION('center_axis',(1.,0.,-1.22464679914735E-16));
#491=DIRECTION('ref_axis',(-1.22464679914735E-16,0.,-1.));
#492=DIRECTION('center_axis',(0.,1.,0.));
#493=DIRECTION('ref_axis',(1.,0.,-1.22464679914735E-16));
#494=DIRECTION('center_axis',(0.,1.,0.));
#495=DIRECTION('ref_axis',(1.,0.,-1.22464679914735E-16));
#496=DIRECTION('center_axis',(0.,1.,0.));
#497=DIRECTION('ref_axis',(1.,0.,-1.22464679914735E-16));
#498=DIRECTION('center_axis',(0.,1.,0.));
#499=DIRECTION('ref_axis',(1.,0.,-1.22464679914735E-16));
#500=DIRECTION('center_axis',(0.,1.,0.));
#501=DIRECTION('ref_axis',(1.,0.,-1.22464679914735E-16));
#502=DIRECTION('',(0.,1.,0.));
#503=DIRECTION('center_axis',(0.,1.,0.));
#504=DIRECTION('ref_axis',(0.,0.,1.));
#505=DIRECTION('center_axis',(1.,0.,-1.22464679914735E-16));
#506=DIRECTION('ref_axis',(-1.22464679914735E-16,0.,-1.));
#507=DIRECTION('center_axis',(0.,1.,0.));
#508=DIRECTION('ref_axis',(1.,0.,-1.22464679914735E-16));
#509=DIRECTION('center_axis',(0.,-1.,0.));
#510=DIRECTION('ref_axis',(-1.,0.,0.));
#511=DIRECTION('center_axis',(0.,-1.,0.));
#512=DIRECTION('ref_axis',(-1.,0.,0.));
#513=DIRECTION('',(0.707106781186549,-0.707106781186546,-8.65956056235495E-17));
#514=DIRECTION('center_axis',(0.,1.,0.));
#515=DIRECTION('ref_axis',(-1.,0.,0.));
#516=DIRECTION('center_axis',(0.,-1.,0.));
#517=DIRECTION('ref_axis',(-1.,0.,0.));
#518=DIRECTION('',(0.,-1.,0.));
#519=DIRECTION('center_axis',(0.,1.,0.));
#520=DIRECTION('ref_axis',(0.,0.,1.));
#521=DIRECTION('center_axis',(0.,1.,0.));
#522=DIRECTION('ref_axis',(0.,0.,1.));
#523=CARTESIAN_POINT('',(0.,0.,0.));
#524=CARTESIAN_POINT('Origin',(0.,0.5,0.));
#525=CARTESIAN_POINT('',(8.188,0.,1.00274079914185E-15));
#526=CARTESIAN_POINT('Origin',(0.,0.,0.));
#527=CARTESIAN_POINT('',(7.188,1.,-8.80276119227117E-16));
#528=CARTESIAN_POINT('',(7.688,0.5,9.41508459184485E-16));
#529=CARTESIAN_POINT('',(-7.188,1.,-8.80276119227117E-16));
#530=CARTESIAN_POINT('Origin',(0.,1.,0.));
#531=CARTESIAN_POINT('Origin',(0.,1.,0.));
#532=CARTESIAN_POINT('Origin',(0.,9.525,0.));
#533=CARTESIAN_POINT('',(-7.188,19.05,-8.80276119227117E-16));
#534=CARTESIAN_POINT('',(-7.188,9.525,-8.80276119227117E-16));
#535=CARTESIAN_POINT('Origin',(0.,19.05,0.));
#536=CARTESIAN_POINT('Origin',(0.,0.,0.));
#537=CARTESIAN_POINT('',(-12.,0.,1.46957615897682E-15));
#538=CARTESIAN_POINT('Origin',(0.,0.,0.));
#539=CARTESIAN_POINT('Origin',(0.,21.2094930647851,0.));
#540=CARTESIAN_POINT('',(0.,23.3689861295701,0.));
#541=CARTESIAN_POINT('',(-3.594,21.2094930647851,-4.40138059613559E-16));
#542=CARTESIAN_POINT('Origin',(0.,0.25,0.));
#543=CARTESIAN_POINT('',(-12.5,0.5,-1.53080849893419E-15));
#544=CARTESIAN_POINT('',(12.5,0.5,-1.53080849893419E-15));
#545=CARTESIAN_POINT('Origin',(0.,0.5,0.));
#546=CARTESIAN_POINT('Origin',(0.,0.5,0.));
#547=CARTESIAN_POINT('',(-12.25,0.25,1.50019232895551E-15));
#548=CARTESIAN_POINT('Origin',(0.,0.,0.));
#549=CARTESIAN_POINT('',(-10.5,74.5,6.78232998312527));
#550=CARTESIAN_POINT('',(10.5,74.5,6.78232998312527));
#551=CARTESIAN_POINT('Origin',(0.,74.5,0.));
#552=CARTESIAN_POINT('',(-10.5,63.,6.78232998312527));
#553=CARTESIAN_POINT('',(-10.5,0.,6.78232998312527));
#554=CARTESIAN_POINT('',(-10.5,63.,-6.78232998312526));
#555=CARTESIAN_POINT('Origin',(0.,63.,0.));
#556=CARTESIAN_POINT('',(-10.5,74.5,-6.78232998312526));
#557=CARTESIAN_POINT('',(-10.5,0.,-6.78232998312526));
#558=CARTESIAN_POINT('',(10.5,74.5,-6.78232998312526));
#559=CARTESIAN_POINT('Origin',(0.,74.5,0.));
#560=CARTESIAN_POINT('',(10.5,63.,-6.78232998312526));
#561=CARTESIAN_POINT('',(10.5,0.,-6.78232998312526));
#562=CARTESIAN_POINT('',(12.5,63.,-1.53080849893419E-15));
#563=CARTESIAN_POINT('Origin',(0.,63.,0.));
#564=CARTESIAN_POINT('',(12.5,0.,-1.53080849893419E-15));
#565=CARTESIAN_POINT('',(10.5,63.,6.78232998312527));
#566=CARTESIAN_POINT('Origin',(0.,63.,0.));
#567=CARTESIAN_POINT('',(10.5,0.,6.78232998312527));
#568=CARTESIAN_POINT('Origin',(0.,74.75,0.));
#569=CARTESIAN_POINT('',(-10.5,75.,5.80947501931112));
#570=CARTESIAN_POINT('Ctrl Pts',(-10.5,75.,5.80947501931112));
#571=CARTESIAN_POINT('Ctrl Pts',(-10.5,74.7693152404208,6.28597540975071));
#572=CARTESIAN_POINT('Ctrl Pts',(-10.5,74.5,6.78232998312527));
#573=CARTESIAN_POINT('',(10.5,75.,5.80947501931113));
#574=CARTESIAN_POINT('Ctrl Pts',(10.5,74.5,6.78232998312527));
#575=CARTESIAN_POINT('Ctrl Pts',(10.5,74.7693152404208,6.28597540975071));
#576=CARTESIAN_POINT('Ctrl Pts',(10.5,75.,5.80947501931112));
#577=CARTESIAN_POINT('Origin',(0.,75.,0.));
#578=CARTESIAN_POINT('Origin',(10.5,75.,6.78232998312527));
#579=CARTESIAN_POINT('',(10.5,63.,-6.78232998312526));
#580=CARTESIAN_POINT('',(10.5,75.,-5.80947501931113));
#581=CARTESIAN_POINT('Ctrl Pts',(10.5,75.,-5.80947501931112));
#582=CARTESIAN_POINT('Ctrl Pts',(10.5,74.7693152404208,-6.28597540975071));
#583=CARTESIAN_POINT('Ctrl Pts',(10.5,74.5,-6.78232998312526));
#584=CARTESIAN_POINT('',(10.5,75.,3.39116499156264));
#585=CARTESIAN_POINT('Origin',(0.,74.75,0.));
#586=CARTESIAN_POINT('',(-10.5,75.,-5.80947501931112));
#587=CARTESIAN_POINT('Ctrl Pts',(-10.5,74.5,-6.78232998312526));
#588=CARTESIAN_POINT('Ctrl Pts',(-10.5,74.7693152404208,-6.2859754097507));
#589=CARTESIAN_POINT('Ctrl Pts',(-10.5,75.,-5.80947501931111));
#590=CARTESIAN_POINT('Origin',(0.,75.,0.));
#591=CARTESIAN_POINT('Origin',(-10.5,75.,-6.78232998312526));
#592=CARTESIAN_POINT('',(-10.5,75.,-3.39116499156263));
#593=CARTESIAN_POINT('',(-10.5,63.,6.78232998312527));
#594=CARTESIAN_POINT('Origin',(-11.5,63.,4.44089209850063E-15));
#595=CARTESIAN_POINT('Origin',(11.5,63.,4.9960036108132E-15));
#596=CARTESIAN_POINT('Origin',(0.,76.4267949192431,0.));
#597=CARTESIAN_POINT('',(-7.62679491924315,76.1035898384863,1.86802599712088E-15));
#598=CARTESIAN_POINT('',(-9.34012998560442E-16,76.1035898384863,-7.62679491924315));
#599=CARTESIAN_POINT('Origin',(0.,76.1035898384863,0.));
#600=CARTESIAN_POINT('Origin',(0.,76.1035898384863,0.));
#601=CARTESIAN_POINT('',(-8.,76.75,1.95943487863577E-15));
#602=CARTESIAN_POINT('',(-7.81339745962158,76.4267949192431,1.91373043787833E-15));
#603=CARTESIAN_POINT('',(8.,76.75,-9.79717439317883E-16));
#604=CARTESIAN_POINT('Origin',(0.,76.75,0.));
#605=CARTESIAN_POINT('Origin',(0.,76.75,0.));
#606=CARTESIAN_POINT('Origin',(0.,76.0035898384863,0.));
#607=CARTESIAN_POINT('',(-9.30731567351992E-16,76.0035898384863,-7.60000000000003));
#608=CARTESIAN_POINT('Origin',(-9.55224503334939E-16,76.0035898384863,-7.80000000000003));
#609=CARTESIAN_POINT('',(-7.60000000000003,76.0035898384863,1.86146313470398E-15));
#610=CARTESIAN_POINT('Origin',(0.,76.0035898384863,0.));
#611=CARTESIAN_POINT('Origin',(0.,76.0035898384863,0.));
#612=CARTESIAN_POINT('Origin',(0.,75.6017949192431,0.));
#613=CARTESIAN_POINT('',(-7.60000000000003,75.2,1.86146313470398E-15));
#614=CARTESIAN_POINT('',(-9.30731567351992E-16,75.2,-7.60000000000003));
#615=CARTESIAN_POINT('Origin',(0.,75.2,0.));
#616=CARTESIAN_POINT('Origin',(0.,75.2,0.));
#617=CARTESIAN_POINT('',(-7.60000000000003,75.6017949192431,1.86146313470398E-15));
#618=CARTESIAN_POINT('Origin',(0.,75.2,0.));
#619=CARTESIAN_POINT('',(-9.55224503334939E-16,75.,-7.80000000000003));
#620=CARTESIAN_POINT('Origin',(-9.55224503334939E-16,75.2,-7.80000000000003));
#621=CARTESIAN_POINT('Origin',(0.,75.,0.));
#622=CARTESIAN_POINT('Origin',(0.,89.5,0.));
#623=CARTESIAN_POINT('',(7.,90.,8.57252759403147E-16));
#624=CARTESIAN_POINT('Origin',(0.,90.,0.));
#625=CARTESIAN_POINT('',(8.,89.,-9.79717439317883E-16));
#626=CARTESIAN_POINT('',(7.5,89.5,-9.18485099360515E-16));
#627=CARTESIAN_POINT('Origin',(0.,89.,0.));
#628=CARTESIAN_POINT('Origin',(0.,90.,0.));
#629=CARTESIAN_POINT('',(8.,90.,9.79717439317883E-16));
#630=CARTESIAN_POINT('Origin',(0.,90.,0.));
#631=CARTESIAN_POINT('Origin',(0.,75.,0.));
#632=UNCERTAINTY_MEASURE_WITH_UNIT(LENGTH_MEASURE(0.01),#636,
'DISTANCE_ACCURACY_VALUE',
'Maximum model space distance between geometric entities at asserted c
onnectivities');
#633=UNCERTAINTY_MEASURE_WITH_UNIT(LENGTH_MEASURE(0.01),#636,
'DISTANCE_ACCURACY_VALUE',
'Maximum model space distance between geometric entities at asserted c
onnectivities');
#634=(
GEOMETRIC_REPRESENTATION_CONTEXT(3)
GLOBAL_UNCERTAINTY_ASSIGNED_CONTEXT((#632))
GLOBAL_UNIT_ASSIGNED_CONTEXT((#636,#638,#639))
REPRESENTATION_CONTEXT('','3D')
);
#635=(
GEOMETRIC_REPRESENTATION_CONTEXT(3)
GLOBAL_UNCERTAINTY_ASSIGNED_CONTEXT((#633))
GLOBAL_UNIT_ASSIGNED_CONTEXT((#636,#638,#639))
REPRESENTATION_CONTEXT('','3D')
);
#636=(
LENGTH_UNIT()
NAMED_UNIT(*)
SI_UNIT(.MILLI.,.METRE.)
);
#637=(
LENGTH_UNIT()
NAMED_UNIT(*)
SI_UNIT(.CENTI.,.METRE.)
);
#638=(
NAMED_UNIT(*)
PLANE_ANGLE_UNIT()
SI_UNIT($,.RADIAN.)
);
#639=(
NAMED_UNIT(*)
SI_UNIT($,.STERADIAN.)
SOLID_ANGLE_UNIT()
);
#640=SHAPE_DEFINITION_REPRESENTATION(#641,#642);
#641=PRODUCT_DEFINITION_SHAPE('',$,#644);
#642=SHAPE_REPRESENTATION('',(#362),#634);
#643=PRODUCT_DEFINITION_CONTEXT('part definition',#648,'design');
#644=PRODUCT_DEFINITION('00055848','00055848',#645,#643);
#645=PRODUCT_DEFINITION_FORMATION('',$,#650);
#646=PRODUCT_RELATED_PRODUCT_CATEGORY('00055848','00055848',(#650));
#647=APPLICATION_PROTOCOL_DEFINITION('international standard',
'automotive_design',2009,#648);
#648=APPLICATION_CONTEXT(
'Core Data for Automotive Mechanical Design Process');
#649=PRODUCT_CONTEXT('part definition',#648,'mechanical');
#650=PRODUCT('00055848','00055848','Zwischenst\X\FCck',(#649));
#651=PRESENTATION_STYLE_ASSIGNMENT((#652));
#652=SURFACE_STYLE_USAGE(.BOTH.,#655);
#653=SURFACE_STYLE_RENDERING_WITH_PROPERTIES($,#659,(#654));
#654=SURFACE_STYLE_TRANSPARENT(0.);
#655=SURFACE_SIDE_STYLE('',(#656,#653));
#656=SURFACE_STYLE_FILL_AREA(#657);
#657=FILL_AREA_STYLE('',(#658));
#658=FILL_AREA_STYLE_COLOUR('',#659);
#659=COLOUR_RGB('',0.301960784313725,0.411764705882353,0.509803921568627);
ENDSEC;
END-ISO-10303-21;
