ISO-10303-21;
HEADER;
/* Generated by software containing ST-Developer
 * from STEP Tools, Inc. (www.steptools.com) 
 */

FILE_DESCRIPTION(
/* description */ ('Anschlagklotz'),
/* implementation_level */ '2;1');

FILE_NAME(
/* name */ '00055536.stp',
/* time_stamp */ '2023-08-24T16:00:12+02:00',
/* author */ ('MD10'),
/* organization */ (''),
/* preprocessor_version */ 'ST-DEVELOPER v19.2',
/* originating_system */ 'Autodesk Inventor 2023',
/* authorisation */ '');

FILE_SCHEMA (('AUTOMOTIVE_DESIGN { 1 0 10303 214 3 1 1 }'));
ENDSEC;

DATA;
#10=MECHANICAL_DESIGN_GEOMETRIC_PRESENTATION_REPRESENTATION('',(#13),#360);
#11=SHAPE_REPRESENTATION_RELATIONSHIP('SRR','None',#367,#12);
#12=ADVANCED_BREP_SHAPE_REPRESENTATION('',(#14),#359);
#13=STYLED_ITEM('',(#376),#14);
#14=MANIFOLD_SOLID_BREP('Volumenk\X\F6rper1',#203);
#15=LINE('',#313,#31);
#16=LINE('',#316,#32);
#17=LINE('',#326,#33);
#18=LINE('',#329,#34);
#19=LINE('',#334,#35);
#20=LINE('',#336,#36);
#21=LINE('',#338,#37);
#22=LINE('',#339,#38);
#23=LINE('',#342,#39);
#24=LINE('',#344,#40);
#25=LINE('',#345,#41);
#26=LINE('',#348,#42);
#27=LINE('',#350,#43);
#28=LINE('',#351,#44);
#29=LINE('',#353,#45);
#30=LINE('',#354,#46);
#31=VECTOR('',#258,7.5);
#32=VECTOR('',#261,4.5);
#33=VECTOR('',#274,7.5);
#34=VECTOR('',#277,4.5);
#35=VECTOR('',#282,10.);
#36=VECTOR('',#283,10.);
#37=VECTOR('',#284,10.);
#38=VECTOR('',#285,10.);
#39=VECTOR('',#288,10.);
#40=VECTOR('',#289,10.);
#41=VECTOR('',#290,10.);
#42=VECTOR('',#293,10.);
#43=VECTOR('',#294,10.);
#44=VECTOR('',#295,10.);
#45=VECTOR('',#298,10.);
#46=VECTOR('',#299,10.);
#47=CYLINDRICAL_SURFACE('',#229,7.5);
#48=CYLINDRICAL_SURFACE('',#231,4.5);
#49=CYLINDRICAL_SURFACE('',#236,7.5);
#50=CYLINDRICAL_SURFACE('',#238,4.5);
#51=FACE_BOUND('',#70,.T.);
#52=FACE_BOUND('',#74,.T.);
#53=FACE_BOUND('',#82,.T.);
#54=FACE_BOUND('',#83,.T.);
#55=FACE_BOUND('',#85,.T.);
#56=FACE_BOUND('',#86,.T.);
#57=FACE_OUTER_BOUND('',#69,.T.);
#58=FACE_OUTER_BOUND('',#71,.T.);
#59=FACE_OUTER_BOUND('',#72,.T.);
#60=FACE_OUTER_BOUND('',#73,.T.);
#61=FACE_OUTER_BOUND('',#75,.T.);
#62=FACE_OUTER_BOUND('',#76,.T.);
#63=FACE_OUTER_BOUND('',#77,.T.);
#64=FACE_OUTER_BOUND('',#78,.T.);
#65=FACE_OUTER_BOUND('',#79,.T.);
#66=FACE_OUTER_BOUND('',#80,.T.);
#67=FACE_OUTER_BOUND('',#81,.T.);
#68=FACE_OUTER_BOUND('',#84,.T.);
#69=EDGE_LOOP('',(#135));
#70=EDGE_LOOP('',(#136));
#71=EDGE_LOOP('',(#137,#138,#139,#140));
#72=EDGE_LOOP('',(#141,#142,#143,#144));
#73=EDGE_LOOP('',(#145));
#74=EDGE_LOOP('',(#146));
#75=EDGE_LOOP('',(#147,#148,#149,#150));
#76=EDGE_LOOP('',(#151,#152,#153,#154));
#77=EDGE_LOOP('',(#155,#156,#157,#158));
#78=EDGE_LOOP('',(#159,#160,#161,#162));
#79=EDGE_LOOP('',(#163,#164,#165,#166));
#80=EDGE_LOOP('',(#167,#168,#169,#170));
#81=EDGE_LOOP('',(#171,#172,#173,#174));
#82=EDGE_LOOP('',(#175));
#83=EDGE_LOOP('',(#176));
#84=EDGE_LOOP('',(#177,#178,#179,#180));
#85=EDGE_LOOP('',(#181));
#86=EDGE_LOOP('',(#182));
#87=CIRCLE('',#227,7.5);
#88=CIRCLE('',#228,4.5);
#89=CIRCLE('',#230,7.5);
#90=CIRCLE('',#232,4.5);
#91=CIRCLE('',#234,7.5);
#92=CIRCLE('',#235,4.5);
#93=CIRCLE('',#237,7.5);
#94=CIRCLE('',#239,4.5);
#95=VERTEX_POINT('',#306);
#96=VERTEX_POINT('',#308);
#97=VERTEX_POINT('',#311);
#98=VERTEX_POINT('',#315);
#99=VERTEX_POINT('',#319);
#100=VERTEX_POINT('',#321);
#101=VERTEX_POINT('',#324);
#102=VERTEX_POINT('',#328);
#103=VERTEX_POINT('',#332);
#104=VERTEX_POINT('',#333);
#105=VERTEX_POINT('',#335);
#106=VERTEX_POINT('',#337);
#107=VERTEX_POINT('',#341);
#108=VERTEX_POINT('',#343);
#109=VERTEX_POINT('',#347);
#110=VERTEX_POINT('',#349);
#111=EDGE_CURVE('',#95,#95,#87,.T.);
#112=EDGE_CURVE('',#96,#96,#88,.T.);
#113=EDGE_CURVE('',#97,#97,#89,.T.);
#114=EDGE_CURVE('',#97,#95,#15,.T.);
#115=EDGE_CURVE('',#96,#98,#16,.T.);
#116=EDGE_CURVE('',#98,#98,#90,.T.);
#117=EDGE_CURVE('',#99,#99,#91,.T.);
#118=EDGE_CURVE('',#100,#100,#92,.T.);
#119=EDGE_CURVE('',#101,#101,#93,.T.);
#120=EDGE_CURVE('',#101,#99,#17,.T.);
#121=EDGE_CURVE('',#100,#102,#18,.T.);
#122=EDGE_CURVE('',#102,#102,#94,.T.);
#123=EDGE_CURVE('',#103,#104,#19,.T.);
#124=EDGE_CURVE('',#105,#104,#20,.T.);
#125=EDGE_CURVE('',#105,#106,#21,.T.);
#126=EDGE_CURVE('',#106,#103,#22,.T.);
#127=EDGE_CURVE('',#104,#107,#23,.T.);
#128=EDGE_CURVE('',#108,#107,#24,.T.);
#129=EDGE_CURVE('',#108,#105,#25,.T.);
#130=EDGE_CURVE('',#107,#109,#26,.T.);
#131=EDGE_CURVE('',#110,#109,#27,.T.);
#132=EDGE_CURVE('',#110,#108,#28,.T.);
#133=EDGE_CURVE('',#109,#103,#29,.T.);
#134=EDGE_CURVE('',#106,#110,#30,.T.);
#135=ORIENTED_EDGE('',*,*,#111,.T.);
#136=ORIENTED_EDGE('',*,*,#112,.F.);
#137=ORIENTED_EDGE('',*,*,#113,.F.);
#138=ORIENTED_EDGE('',*,*,#114,.T.);
#139=ORIENTED_EDGE('',*,*,#111,.F.);
#140=ORIENTED_EDGE('',*,*,#114,.F.);
#141=ORIENTED_EDGE('',*,*,#112,.T.);
#142=ORIENTED_EDGE('',*,*,#115,.T.);
#143=ORIENTED_EDGE('',*,*,#116,.F.);
#144=ORIENTED_EDGE('',*,*,#115,.F.);
#145=ORIENTED_EDGE('',*,*,#117,.T.);
#146=ORIENTED_EDGE('',*,*,#118,.F.);
#147=ORIENTED_EDGE('',*,*,#119,.F.);
#148=ORIENTED_EDGE('',*,*,#120,.T.);
#149=ORIENTED_EDGE('',*,*,#117,.F.);
#150=ORIENTED_EDGE('',*,*,#120,.F.);
#151=ORIENTED_EDGE('',*,*,#118,.T.);
#152=ORIENTED_EDGE('',*,*,#121,.T.);
#153=ORIENTED_EDGE('',*,*,#122,.F.);
#154=ORIENTED_EDGE('',*,*,#121,.F.);
#155=ORIENTED_EDGE('',*,*,#123,.T.);
#156=ORIENTED_EDGE('',*,*,#124,.F.);
#157=ORIENTED_EDGE('',*,*,#125,.T.);
#158=ORIENTED_EDGE('',*,*,#126,.T.);
#159=ORIENTED_EDGE('',*,*,#127,.T.);
#160=ORIENTED_EDGE('',*,*,#128,.F.);
#161=ORIENTED_EDGE('',*,*,#129,.T.);
#162=ORIENTED_EDGE('',*,*,#124,.T.);
#163=ORIENTED_EDGE('',*,*,#130,.T.);
#164=ORIENTED_EDGE('',*,*,#131,.F.);
#165=ORIENTED_EDGE('',*,*,#132,.T.);
#166=ORIENTED_EDGE('',*,*,#128,.T.);
#167=ORIENTED_EDGE('',*,*,#133,.T.);
#168=ORIENTED_EDGE('',*,*,#126,.F.);
#169=ORIENTED_EDGE('',*,*,#134,.T.);
#170=ORIENTED_EDGE('',*,*,#131,.T.);
#171=ORIENTED_EDGE('',*,*,#134,.F.);
#172=ORIENTED_EDGE('',*,*,#125,.F.);
#173=ORIENTED_EDGE('',*,*,#129,.F.);
#174=ORIENTED_EDGE('',*,*,#132,.F.);
#175=ORIENTED_EDGE('',*,*,#116,.T.);
#176=ORIENTED_EDGE('',*,*,#122,.T.);
#177=ORIENTED_EDGE('',*,*,#123,.F.);
#178=ORIENTED_EDGE('',*,*,#133,.F.);
#179=ORIENTED_EDGE('',*,*,#130,.F.);
#180=ORIENTED_EDGE('',*,*,#127,.F.);
#181=ORIENTED_EDGE('',*,*,#113,.T.);
#182=ORIENTED_EDGE('',*,*,#119,.T.);
#183=PLANE('',#226);
#184=PLANE('',#233);
#185=PLANE('',#240);
#186=PLANE('',#241);
#187=PLANE('',#242);
#188=PLANE('',#243);
#189=PLANE('',#244);
#190=PLANE('',#245);
#191=ADVANCED_FACE('',(#57,#51),#183,.T.);
#192=ADVANCED_FACE('',(#58),#47,.F.);
#193=ADVANCED_FACE('',(#59),#48,.F.);
#194=ADVANCED_FACE('',(#60,#52),#184,.T.);
#195=ADVANCED_FACE('',(#61),#49,.F.);
#196=ADVANCED_FACE('',(#62),#50,.F.);
#197=ADVANCED_FACE('',(#63),#185,.T.);
#198=ADVANCED_FACE('',(#64),#186,.T.);
#199=ADVANCED_FACE('',(#65),#187,.T.);
#200=ADVANCED_FACE('',(#66),#188,.T.);
#201=ADVANCED_FACE('',(#67,#53,#54),#189,.F.);
#202=ADVANCED_FACE('',(#68,#55,#56),#190,.T.);
#203=CLOSED_SHELL('',(#191,#192,#193,#194,#195,#196,#197,#198,#199,#200,
#201,#202));
#204=DERIVED_UNIT_ELEMENT(#207,1.);
#205=DERIVED_UNIT_ELEMENT(#362,-3.);
#206=DIMENSIONAL_EXPONENTS(0.,1.,0.,0.,0.,0.,0.);
#207=(
CONVERSION_BASED_UNIT('gram',#209)
MASS_UNIT()
NAMED_UNIT(#206)
);
#208=(
MASS_UNIT()
NAMED_UNIT(*)
SI_UNIT(.KILO.,.GRAM.)
);
#209=MASS_MEASURE_WITH_UNIT(MASS_MEASURE(0.001),#208);
#210=DERIVED_UNIT((#204,#205));
#211=MEASURE_REPRESENTATION_ITEM('density measure',
POSITIVE_RATIO_MEASURE(7.76),#210);
#212=PROPERTY_DEFINITION_REPRESENTATION(#217,#214);
#213=PROPERTY_DEFINITION_REPRESENTATION(#218,#215);
#214=REPRESENTATION('material name',(#216),#359);
#215=REPRESENTATION('density',(#211),#359);
#216=DESCRIPTIVE_REPRESENTATION_ITEM('16MnCr5 (1.7131)',
'16MnCr5 (1.7131)');
#217=PROPERTY_DEFINITION('material property','material name',#369);
#218=PROPERTY_DEFINITION('material property','density of part',#369);
#219=DATE_TIME_ROLE('creation_date');
#220=APPLIED_DATE_AND_TIME_ASSIGNMENT(#221,#219,(#369));
#221=DATE_AND_TIME(#222,#223);
#222=CALENDAR_DATE(2007,23,2);
#223=LOCAL_TIME(0,0,0.,#224);
#224=COORDINATED_UNIVERSAL_TIME_OFFSET(0,0,.BEHIND.);
#225=AXIS2_PLACEMENT_3D('',#304,#246,#247);
#226=AXIS2_PLACEMENT_3D('',#305,#248,#249);
#227=AXIS2_PLACEMENT_3D('',#307,#250,#251);
#228=AXIS2_PLACEMENT_3D('',#309,#252,#253);
#229=AXIS2_PLACEMENT_3D('',#310,#254,#255);
#230=AXIS2_PLACEMENT_3D('',#312,#256,#257);
#231=AXIS2_PLACEMENT_3D('',#314,#259,#260);
#232=AXIS2_PLACEMENT_3D('',#317,#262,#263);
#233=AXIS2_PLACEMENT_3D('',#318,#264,#265);
#234=AXIS2_PLACEMENT_3D('',#320,#266,#267);
#235=AXIS2_PLACEMENT_3D('',#322,#268,#269);
#236=AXIS2_PLACEMENT_3D('',#323,#270,#271);
#237=AXIS2_PLACEMENT_3D('',#325,#272,#273);
#238=AXIS2_PLACEMENT_3D('',#327,#275,#276);
#239=AXIS2_PLACEMENT_3D('',#330,#278,#279);
#240=AXIS2_PLACEMENT_3D('',#331,#280,#281);
#241=AXIS2_PLACEMENT_3D('',#340,#286,#287);
#242=AXIS2_PLACEMENT_3D('',#346,#291,#292);
#243=AXIS2_PLACEMENT_3D('',#352,#296,#297);
#244=AXIS2_PLACEMENT_3D('',#355,#300,#301);
#245=AXIS2_PLACEMENT_3D('',#356,#302,#303);
#246=DIRECTION('axis',(0.,0.,1.));
#247=DIRECTION('refdir',(1.,0.,0.));
#248=DIRECTION('center_axis',(0.,0.,1.));
#249=DIRECTION('ref_axis',(1.,0.,0.));
#250=DIRECTION('center_axis',(0.,0.,1.));
#251=DIRECTION('ref_axis',(1.,0.,0.));
#252=DIRECTION('center_axis',(0.,0.,1.));
#253=DIRECTION('ref_axis',(1.,0.,0.));
#254=DIRECTION('center_axis',(0.,0.,1.));
#255=DIRECTION('ref_axis',(1.,0.,0.));
#256=DIRECTION('center_axis',(0.,0.,-1.));
#257=DIRECTION('ref_axis',(1.,0.,0.));
#258=DIRECTION('',(0.,0.,-1.));
#259=DIRECTION('center_axis',(0.,0.,1.));
#260=DIRECTION('ref_axis',(1.,0.,0.));
#261=DIRECTION('',(0.,0.,-1.));
#262=DIRECTION('center_axis',(0.,0.,1.));
#263=DIRECTION('ref_axis',(1.,0.,0.));
#264=DIRECTION('center_axis',(0.,0.,1.));
#265=DIRECTION('ref_axis',(1.,0.,0.));
#266=DIRECTION('center_axis',(0.,0.,1.));
#267=DIRECTION('ref_axis',(1.,0.,0.));
#268=DIRECTION('center_axis',(0.,0.,1.));
#269=DIRECTION('ref_axis',(1.,0.,0.));
#270=DIRECTION('center_axis',(0.,0.,1.));
#271=DIRECTION('ref_axis',(1.,0.,0.));
#272=DIRECTION('center_axis',(0.,0.,-1.));
#273=DIRECTION('ref_axis',(1.,0.,0.));
#274=DIRECTION('',(0.,0.,-1.));
#275=DIRECTION('center_axis',(0.,0.,1.));
#276=DIRECTION('ref_axis',(1.,0.,0.));
#277=DIRECTION('',(0.,0.,-1.));
#278=DIRECTION('center_axis',(0.,0.,1.));
#279=DIRECTION('ref_axis',(1.,0.,0.));
#280=DIRECTION('center_axis',(-1.,0.,0.));
#281=DIRECTION('ref_axis',(0.,0.,1.));
#282=DIRECTION('',(0.,1.,0.));
#283=DIRECTION('',(0.,0.,1.));
#284=DIRECTION('',(0.,-1.,0.));
#285=DIRECTION('',(0.,0.,1.));
#286=DIRECTION('center_axis',(0.,1.,0.));
#287=DIRECTION('ref_axis',(0.,0.,1.));
#288=DIRECTION('',(1.,0.,0.));
#289=DIRECTION('',(0.,0.,1.));
#290=DIRECTION('',(-1.,0.,0.));
#291=DIRECTION('center_axis',(1.,0.,0.));
#292=DIRECTION('ref_axis',(0.,0.,-1.));
#293=DIRECTION('',(0.,-1.,0.));
#294=DIRECTION('',(0.,0.,1.));
#295=DIRECTION('',(0.,1.,0.));
#296=DIRECTION('center_axis',(0.,-1.,0.));
#297=DIRECTION('ref_axis',(0.,0.,-1.));
#298=DIRECTION('',(-1.,0.,0.));
#299=DIRECTION('',(1.,0.,0.));
#300=DIRECTION('center_axis',(0.,0.,1.));
#301=DIRECTION('ref_axis',(1.,0.,0.));
#302=DIRECTION('center_axis',(0.,0.,1.));
#303=DIRECTION('ref_axis',(1.,0.,0.));
#304=CARTESIAN_POINT('',(0.,0.,0.));
#305=CARTESIAN_POINT('Origin',(20.,-1.22464679914736E-15,34.));
#306=CARTESIAN_POINT('',(12.5,-2.14313189850787E-15,34.));
#307=CARTESIAN_POINT('Origin',(20.,-1.22464679914736E-15,34.));
#308=CARTESIAN_POINT('',(15.5,-1.77573785876366E-15,34.));
#309=CARTESIAN_POINT('Origin',(20.,-1.22464679914736E-15,34.));
#310=CARTESIAN_POINT('Origin',(20.,-1.22464679914736E-15,38.5));
#311=CARTESIAN_POINT('',(12.5,-2.14313189850787E-15,43.));
#312=CARTESIAN_POINT('Origin',(20.,-1.22464679914736E-15,43.));
#313=CARTESIAN_POINT('',(12.5,-2.14313189850787E-15,38.5));
#314=CARTESIAN_POINT('Origin',(20.,-1.22464679914736E-15,-33.4787552199956));
#315=CARTESIAN_POINT('',(15.5,-1.77573785876366E-15,0.));
#316=CARTESIAN_POINT('',(15.5,-1.77573785876366E-15,-33.4787552199956));
#317=CARTESIAN_POINT('Origin',(20.,-1.22464679914736E-15,0.));
#318=CARTESIAN_POINT('Origin',(-20.,1.22464679914735E-15,34.));
#319=CARTESIAN_POINT('',(-27.5,3.06161699786838E-16,34.));
#320=CARTESIAN_POINT('Origin',(-20.,1.22464679914735E-15,34.));
#321=CARTESIAN_POINT('',(-24.5,6.73555739531044E-16,34.));
#322=CARTESIAN_POINT('Origin',(-20.,1.22464679914735E-15,34.));
#323=CARTESIAN_POINT('Origin',(-20.,1.22464679914735E-15,38.5));
#324=CARTESIAN_POINT('',(-27.5,3.06161699786838E-16,43.));
#325=CARTESIAN_POINT('Origin',(-20.,1.22464679914735E-15,43.));
#326=CARTESIAN_POINT('',(-27.5,3.06161699786838E-16,38.5));
#327=CARTESIAN_POINT('Origin',(-20.,1.22464679914735E-15,-33.4787552199956));
#328=CARTESIAN_POINT('',(-24.5,6.73555739531044E-16,0.));
#329=CARTESIAN_POINT('',(-24.5,6.73555739531044E-16,-33.4787552199956));
#330=CARTESIAN_POINT('Origin',(-20.,1.22464679914735E-15,0.));
#331=CARTESIAN_POINT('Origin',(-30.,-10.,0.));
#332=CARTESIAN_POINT('',(-30.,-10.,43.));
#333=CARTESIAN_POINT('',(-30.,10.,43.));
#334=CARTESIAN_POINT('',(-30.,10.,43.));
#335=CARTESIAN_POINT('',(-30.,10.,0.));
#336=CARTESIAN_POINT('',(-30.,10.,0.));
#337=CARTESIAN_POINT('',(-30.,-10.,0.));
#338=CARTESIAN_POINT('',(-30.,10.,0.));
#339=CARTESIAN_POINT('',(-30.,-10.,0.));
#340=CARTESIAN_POINT('Origin',(-30.,10.,0.));
#341=CARTESIAN_POINT('',(30.,10.,43.));
#342=CARTESIAN_POINT('',(30.,10.,43.));
#343=CARTESIAN_POINT('',(30.,10.,0.));
#344=CARTESIAN_POINT('',(30.,10.,0.));
#345=CARTESIAN_POINT('',(30.,10.,0.));
#346=CARTESIAN_POINT('Origin',(30.,10.,0.));
#347=CARTESIAN_POINT('',(30.,-10.,43.));
#348=CARTESIAN_POINT('',(30.,-10.,43.));
#349=CARTESIAN_POINT('',(30.,-10.,0.));
#350=CARTESIAN_POINT('',(30.,-10.,0.));
#351=CARTESIAN_POINT('',(30.,-10.,0.));
#352=CARTESIAN_POINT('Origin',(30.,-10.,0.));
#353=CARTESIAN_POINT('',(-30.,-10.,43.));
#354=CARTESIAN_POINT('',(-30.,-10.,0.));
#355=CARTESIAN_POINT('Origin',(0.,5.04646829375071E-17,0.));
#356=CARTESIAN_POINT('Origin',(0.,-5.04646829375071E-17,43.));
#357=UNCERTAINTY_MEASURE_WITH_UNIT(LENGTH_MEASURE(0.01),#361,
'DISTANCE_ACCURACY_VALUE',
'Maximum model space distance between geometric entities at asserted c
onnectivities');
#358=UNCERTAINTY_MEASURE_WITH_UNIT(LENGTH_MEASURE(0.01),#361,
'DISTANCE_ACCURACY_VALUE',
'Maximum model space distance between geometric entities at asserted c
onnectivities');
#359=(
GEOMETRIC_REPRESENTATION_CONTEXT(3)
GLOBAL_UNCERTAINTY_ASSIGNED_CONTEXT((#357))
GLOBAL_UNIT_ASSIGNED_CONTEXT((#361,#363,#364))
REPRESENTATION_CONTEXT('','3D')
);
#360=(
GEOMETRIC_REPRESENTATION_CONTEXT(3)
GLOBAL_UNCERTAINTY_ASSIGNED_CONTEXT((#358))
GLOBAL_UNIT_ASSIGNED_CONTEXT((#361,#363,#364))
REPRESENTATION_CONTEXT('','3D')
);
#361=(
LENGTH_UNIT()
NAMED_UNIT(*)
SI_UNIT(.MILLI.,.METRE.)
);
#362=(
LENGTH_UNIT()
NAMED_UNIT(*)
SI_UNIT(.CENTI.,.METRE.)
);
#363=(
NAMED_UNIT(*)
PLANE_ANGLE_UNIT()
SI_UNIT($,.RADIAN.)
);
#364=(
NAMED_UNIT(*)
SI_UNIT($,.STERADIAN.)
SOLID_ANGLE_UNIT()
);
#365=SHAPE_DEFINITION_REPRESENTATION(#366,#367);
#366=PRODUCT_DEFINITION_SHAPE('',$,#369);
#367=SHAPE_REPRESENTATION('',(#225),#359);
#368=PRODUCT_DEFINITION_CONTEXT('part definition',#373,'design');
#369=PRODUCT_DEFINITION('00055536','00055536',#370,#368);
#370=PRODUCT_DEFINITION_FORMATION('',$,#375);
#371=PRODUCT_RELATED_PRODUCT_CATEGORY('00055536','00055536',(#375));
#372=APPLICATION_PROTOCOL_DEFINITION('international standard',
'automotive_design',2009,#373);
#373=APPLICATION_CONTEXT(
'Core Data for Automotive Mechanical Design Process');
#374=PRODUCT_CONTEXT('part definition',#373,'mechanical');
#375=PRODUCT('00055536','00055536','Anschlagklotz',(#374));
#376=PRESENTATION_STYLE_ASSIGNMENT((#377));
#377=SURFACE_STYLE_USAGE(.BOTH.,#380);
#378=SURFACE_STYLE_RENDERING_WITH_PROPERTIES($,#384,(#379));
#379=SURFACE_STYLE_TRANSPARENT(0.);
#380=SURFACE_SIDE_STYLE('',(#381,#378));
#381=SURFACE_STYLE_FILL_AREA(#382);
#382=FILL_AREA_STYLE('',(#383));
#383=FILL_AREA_STYLE_COLOUR('',#384);
#384=COLOUR_RGB('',0.301960784313725,0.411764705882353,0.509803921568627);
ENDSEC;
END-ISO-10303-21;
