ISO-10303-21;
HEADER;
/* Generated by software containing ST-Developer
 * from STEP Tools, Inc. (www.steptools.com) 
 */

FILE_DESCRIPTION(
/* description */ ('Zentrierzapfen'),
/* implementation_level */ '2;1');

FILE_NAME(
/* name */ '00052583.stp',
/* time_stamp */ '2023-08-24T15:56:40+02:00',
/* author */ ('MD18'),
/* organization */ (''),
/* preprocessor_version */ 'ST-DEVELOPER v19.2',
/* originating_system */ 'Autodesk Inventor 2023',
/* authorisation */ '');

FILE_SCHEMA (('AUTOMOTIVE_DESIGN { 1 0 10303 214 3 1 1 }'));
ENDSEC;

DATA;
#10=MECHANICAL_DESIGN_GEOMETRIC_PRESENTATION_REPRESENTATION('',(#13),#405);
#11=SHAPE_REPRESENTATION_RELATIONSHIP('SRR','None',#412,#12);
#12=ADVANCED_BREP_SHAPE_REPRESENTATION('',(#14),#404);
#13=STYLED_ITEM('',(#421),#14);
#14=MANIFOLD_SOLID_BREP('Volumenk\X\F6rper2',#197);
#15=(
BOUNDED_SURFACE()
B_SPLINE_SURFACE(2,2,((#365,#366,#367,#368,#369,#370,#371,#372,#373),(#374,
#375,#376,#377,#378,#379,#380,#381,#382),(#383,#384,#385,#386,#387,#388,
#389,#390,#391)),.UNSPECIFIED.,.F.,.T.,.F.)
B_SPLINE_SURFACE_WITH_KNOTS((3,3),(3,2,2,2,3),(0.,0.349065850398866),(-3.14159265358979,
-1.5707963267949,0.,1.5707963267949,3.14159265358979),.UNSPECIFIED.)
GEOMETRIC_REPRESENTATION_ITEM()
RATIONAL_B_SPLINE_SURFACE(((1.,0.707106781186548,1.,0.707106781186548,1.,
0.707106781186548,1.,0.707106781186548,1.),(0.984807753012211,0.696364240320021,
0.984807753012211,0.696364240320021,0.984807753012211,0.696364240320021,
0.984807753012211,0.696364240320021,0.984807753012211),(1.,0.707106781186548,
1.,0.707106781186548,1.,0.707106781186548,1.,0.707106781186548,1.)))
REPRESENTATION_ITEM('')
SURFACE()
);
#16=CYLINDRICAL_SURFACE('',#232,8.);
#17=CYLINDRICAL_SURFACE('',#242,6.95);
#18=CYLINDRICAL_SURFACE('',#249,4.);
#19=CYLINDRICAL_SURFACE('',#250,2.25);
#20=FACE_BOUND('',#58,.T.);
#21=FACE_BOUND('',#62,.T.);
#22=FACE_BOUND('',#65,.T.);
#23=FACE_BOUND('',#69,.T.);
#24=PLANE('',#227);
#25=PLANE('',#234);
#26=PLANE('',#241);
#27=PLANE('',#246);
#28=LINE('',#330,#34);
#29=LINE('',#341,#35);
#30=LINE('',#346,#36);
#31=LINE('',#363,#37);
#32=LINE('',#399,#38);
#33=LINE('',#401,#39);
#34=VECTOR('',#263,6.4040446486007);
#35=VECTOR('',#276,7.5);
#36=VECTOR('',#283,8.);
#37=VECTOR('',#304,6.95);
#38=VECTOR('',#317,4.);
#39=VECTOR('',#320,2.25);
#40=CONICAL_SURFACE('',#224,6.4040446486007,0.349065850398866);
#41=CONICAL_SURFACE('',#229,7.5,0.785398163397448);
#42=FACE_OUTER_BOUND('',#55,.T.);
#43=FACE_OUTER_BOUND('',#56,.T.);
#44=FACE_OUTER_BOUND('',#57,.T.);
#45=FACE_OUTER_BOUND('',#59,.T.);
#46=FACE_OUTER_BOUND('',#60,.T.);
#47=FACE_OUTER_BOUND('',#61,.T.);
#48=FACE_OUTER_BOUND('',#63,.T.);
#49=FACE_OUTER_BOUND('',#64,.T.);
#50=FACE_OUTER_BOUND('',#66,.T.);
#51=FACE_OUTER_BOUND('',#67,.T.);
#52=FACE_OUTER_BOUND('',#68,.T.);
#53=FACE_OUTER_BOUND('',#70,.T.);
#54=FACE_OUTER_BOUND('',#71,.T.);
#55=EDGE_LOOP('',(#132,#133,#134,#135));
#56=EDGE_LOOP('',(#136,#137,#138,#139,#140));
#57=EDGE_LOOP('',(#141));
#58=EDGE_LOOP('',(#142));
#59=EDGE_LOOP('',(#143,#144,#145,#146));
#60=EDGE_LOOP('',(#147,#148,#149,#150));
#61=EDGE_LOOP('',(#151));
#62=EDGE_LOOP('',(#152));
#63=EDGE_LOOP('',(#153,#154,#155,#156,#157));
#64=EDGE_LOOP('',(#158));
#65=EDGE_LOOP('',(#159));
#66=EDGE_LOOP('',(#160,#161,#162,#163,#164,#165));
#67=EDGE_LOOP('',(#166,#167,#168,#169,#170,#171));
#68=EDGE_LOOP('',(#172));
#69=EDGE_LOOP('',(#173));
#70=EDGE_LOOP('',(#174,#175,#176,#177));
#71=EDGE_LOOP('',(#178,#179,#180,#181));
#72=CIRCLE('',#221,6.33705946235379);
#73=CIRCLE('',#222,2.);
#74=CIRCLE('',#223,4.45767422078197);
#75=CIRCLE('',#225,6.70877048314363);
#76=CIRCLE('',#226,6.70877048314363);
#77=CIRCLE('',#228,4.);
#78=CIRCLE('',#230,8.);
#79=CIRCLE('',#231,7.);
#80=CIRCLE('',#233,8.);
#81=CIRCLE('',#235,2.25);
#82=CIRCLE('',#237,7.45);
#83=CIRCLE('',#238,0.5);
#84=CIRCLE('',#239,6.95);
#85=CIRCLE('',#240,6.95);
#86=CIRCLE('',#243,6.95);
#87=CIRCLE('',#244,6.95);
#88=CIRCLE('',#245,4.);
#89=CIRCLE('',#247,4.);
#90=CIRCLE('',#248,2.25);
#91=VERTEX_POINT('',#323);
#92=VERTEX_POINT('',#325);
#93=VERTEX_POINT('',#329);
#94=VERTEX_POINT('',#331);
#95=VERTEX_POINT('',#335);
#96=VERTEX_POINT('',#338);
#97=VERTEX_POINT('',#340);
#98=VERTEX_POINT('',#344);
#99=VERTEX_POINT('',#348);
#100=VERTEX_POINT('',#351);
#101=VERTEX_POINT('',#353);
#102=VERTEX_POINT('',#355);
#103=VERTEX_POINT('',#360);
#104=VERTEX_POINT('',#361);
#105=VERTEX_POINT('',#394);
#106=VERTEX_POINT('',#396);
#107=EDGE_CURVE('',#91,#91,#72,.T.);
#108=EDGE_CURVE('',#91,#92,#73,.T.);
#109=EDGE_CURVE('',#92,#92,#74,.T.);
#110=EDGE_CURVE('',#91,#93,#28,.T.);
#111=EDGE_CURVE('',#94,#93,#75,.T.);
#112=EDGE_CURVE('',#93,#94,#76,.T.);
#113=EDGE_CURVE('',#95,#95,#77,.T.);
#114=EDGE_CURVE('',#96,#96,#78,.T.);
#115=EDGE_CURVE('',#96,#97,#29,.T.);
#116=EDGE_CURVE('',#97,#97,#79,.T.);
#117=EDGE_CURVE('',#98,#98,#80,.T.);
#118=EDGE_CURVE('',#98,#96,#30,.T.);
#119=EDGE_CURVE('',#99,#99,#81,.T.);
#120=EDGE_CURVE('',#100,#100,#82,.T.);
#121=EDGE_CURVE('',#100,#101,#83,.T.);
#122=EDGE_CURVE('',#101,#102,#84,.T.);
#123=EDGE_CURVE('',#102,#101,#85,.T.);
#124=EDGE_CURVE('',#103,#104,#86,.T.);
#125=EDGE_CURVE('',#103,#102,#31,.T.);
#126=EDGE_CURVE('',#104,#103,#87,.T.);
#127=EDGE_CURVE('',#94,#104,#88,.T.);
#128=EDGE_CURVE('',#105,#105,#89,.T.);
#129=EDGE_CURVE('',#106,#106,#90,.T.);
#130=EDGE_CURVE('',#95,#105,#32,.T.);
#131=EDGE_CURVE('',#106,#99,#33,.T.);
#132=ORIENTED_EDGE('',*,*,#107,.T.);
#133=ORIENTED_EDGE('',*,*,#108,.T.);
#134=ORIENTED_EDGE('',*,*,#109,.T.);
#135=ORIENTED_EDGE('',*,*,#108,.F.);
#136=ORIENTED_EDGE('',*,*,#107,.F.);
#137=ORIENTED_EDGE('',*,*,#110,.T.);
#138=ORIENTED_EDGE('',*,*,#111,.F.);
#139=ORIENTED_EDGE('',*,*,#112,.F.);
#140=ORIENTED_EDGE('',*,*,#110,.F.);
#141=ORIENTED_EDGE('',*,*,#109,.F.);
#142=ORIENTED_EDGE('',*,*,#113,.T.);
#143=ORIENTED_EDGE('',*,*,#114,.T.);
#144=ORIENTED_EDGE('',*,*,#115,.T.);
#145=ORIENTED_EDGE('',*,*,#116,.T.);
#146=ORIENTED_EDGE('',*,*,#115,.F.);
#147=ORIENTED_EDGE('',*,*,#117,.F.);
#148=ORIENTED_EDGE('',*,*,#118,.T.);
#149=ORIENTED_EDGE('',*,*,#114,.F.);
#150=ORIENTED_EDGE('',*,*,#118,.F.);
#151=ORIENTED_EDGE('',*,*,#116,.F.);
#152=ORIENTED_EDGE('',*,*,#119,.T.);
#153=ORIENTED_EDGE('',*,*,#120,.T.);
#154=ORIENTED_EDGE('',*,*,#121,.T.);
#155=ORIENTED_EDGE('',*,*,#122,.T.);
#156=ORIENTED_EDGE('',*,*,#123,.T.);
#157=ORIENTED_EDGE('',*,*,#121,.F.);
#158=ORIENTED_EDGE('',*,*,#117,.T.);
#159=ORIENTED_EDGE('',*,*,#120,.F.);
#160=ORIENTED_EDGE('',*,*,#124,.F.);
#161=ORIENTED_EDGE('',*,*,#125,.T.);
#162=ORIENTED_EDGE('',*,*,#122,.F.);
#163=ORIENTED_EDGE('',*,*,#123,.F.);
#164=ORIENTED_EDGE('',*,*,#125,.F.);
#165=ORIENTED_EDGE('',*,*,#126,.F.);
#166=ORIENTED_EDGE('',*,*,#112,.T.);
#167=ORIENTED_EDGE('',*,*,#127,.T.);
#168=ORIENTED_EDGE('',*,*,#126,.T.);
#169=ORIENTED_EDGE('',*,*,#124,.T.);
#170=ORIENTED_EDGE('',*,*,#127,.F.);
#171=ORIENTED_EDGE('',*,*,#111,.T.);
#172=ORIENTED_EDGE('',*,*,#128,.T.);
#173=ORIENTED_EDGE('',*,*,#129,.F.);
#174=ORIENTED_EDGE('',*,*,#113,.F.);
#175=ORIENTED_EDGE('',*,*,#130,.T.);
#176=ORIENTED_EDGE('',*,*,#128,.F.);
#177=ORIENTED_EDGE('',*,*,#130,.F.);
#178=ORIENTED_EDGE('',*,*,#129,.T.);
#179=ORIENTED_EDGE('',*,*,#131,.T.);
#180=ORIENTED_EDGE('',*,*,#119,.F.);
#181=ORIENTED_EDGE('',*,*,#131,.F.);
#182=TOROIDAL_SURFACE('',#220,4.45767422078197,2.);
#183=TOROIDAL_SURFACE('',#236,7.45,0.5);
#184=ADVANCED_FACE('',(#42),#182,.T.);
#185=ADVANCED_FACE('',(#43),#40,.T.);
#186=ADVANCED_FACE('',(#44,#20),#24,.T.);
#187=ADVANCED_FACE('',(#45),#41,.T.);
#188=ADVANCED_FACE('',(#46),#16,.T.);
#189=ADVANCED_FACE('',(#47,#21),#25,.F.);
#190=ADVANCED_FACE('',(#48),#183,.F.);
#191=ADVANCED_FACE('',(#49,#22),#26,.T.);
#192=ADVANCED_FACE('',(#50),#17,.T.);
#193=ADVANCED_FACE('',(#51),#15,.F.);
#194=ADVANCED_FACE('',(#52,#23),#27,.T.);
#195=ADVANCED_FACE('',(#53),#18,.F.);
#196=ADVANCED_FACE('',(#54),#19,.F.);
#197=CLOSED_SHELL('',(#184,#185,#186,#187,#188,#189,#190,#191,#192,#193,
#194,#195,#196));
#198=DERIVED_UNIT_ELEMENT(#201,1.);
#199=DERIVED_UNIT_ELEMENT(#407,-3.);
#200=DIMENSIONAL_EXPONENTS(0.,1.,0.,0.,0.,0.,0.);
#201=(
CONVERSION_BASED_UNIT('gram',#203)
MASS_UNIT()
NAMED_UNIT(#200)
);
#202=(
MASS_UNIT()
NAMED_UNIT(*)
SI_UNIT(.KILO.,.GRAM.)
);
#203=MASS_MEASURE_WITH_UNIT(MASS_MEASURE(0.001),#202);
#204=DERIVED_UNIT((#198,#199));
#205=MEASURE_REPRESENTATION_ITEM('density measure',
POSITIVE_RATIO_MEASURE(7.76),#204);
#206=PROPERTY_DEFINITION_REPRESENTATION(#211,#208);
#207=PROPERTY_DEFINITION_REPRESENTATION(#212,#209);
#208=REPRESENTATION('material name',(#210),#404);
#209=REPRESENTATION('density',(#205),#404);
#210=DESCRIPTIVE_REPRESENTATION_ITEM('16MnCr5 (1.7131)',
'16MnCr5 (1.7131)');
#211=PROPERTY_DEFINITION('material property','material name',#414);
#212=PROPERTY_DEFINITION('material property','density of part',#414);
#213=DATE_TIME_ROLE('creation_date');
#214=APPLIED_DATE_AND_TIME_ASSIGNMENT(#215,#213,(#414));
#215=DATE_AND_TIME(#216,#217);
#216=CALENDAR_DATE(2018,23,9);
#217=LOCAL_TIME(0,0,0.,#218);
#218=COORDINATED_UNIVERSAL_TIME_OFFSET(0,0,.BEHIND.);
#219=AXIS2_PLACEMENT_3D('',#321,#251,#252);
#220=AXIS2_PLACEMENT_3D('',#322,#253,#254);
#221=AXIS2_PLACEMENT_3D('',#324,#255,#256);
#222=AXIS2_PLACEMENT_3D('',#326,#257,#258);
#223=AXIS2_PLACEMENT_3D('',#327,#259,#260);
#224=AXIS2_PLACEMENT_3D('',#328,#261,#262);
#225=AXIS2_PLACEMENT_3D('',#332,#264,#265);
#226=AXIS2_PLACEMENT_3D('',#333,#266,#267);
#227=AXIS2_PLACEMENT_3D('',#334,#268,#269);
#228=AXIS2_PLACEMENT_3D('',#336,#270,#271);
#229=AXIS2_PLACEMENT_3D('',#337,#272,#273);
#230=AXIS2_PLACEMENT_3D('',#339,#274,#275);
#231=AXIS2_PLACEMENT_3D('',#342,#277,#278);
#232=AXIS2_PLACEMENT_3D('',#343,#279,#280);
#233=AXIS2_PLACEMENT_3D('',#345,#281,#282);
#234=AXIS2_PLACEMENT_3D('',#347,#284,#285);
#235=AXIS2_PLACEMENT_3D('',#349,#286,#287);
#236=AXIS2_PLACEMENT_3D('',#350,#288,#289);
#237=AXIS2_PLACEMENT_3D('',#352,#290,#291);
#238=AXIS2_PLACEMENT_3D('',#354,#292,#293);
#239=AXIS2_PLACEMENT_3D('',#356,#294,#295);
#240=AXIS2_PLACEMENT_3D('',#357,#296,#297);
#241=AXIS2_PLACEMENT_3D('',#358,#298,#299);
#242=AXIS2_PLACEMENT_3D('',#359,#300,#301);
#243=AXIS2_PLACEMENT_3D('',#362,#302,#303);
#244=AXIS2_PLACEMENT_3D('',#364,#305,#306);
#245=AXIS2_PLACEMENT_3D('',#392,#307,#308);
#246=AXIS2_PLACEMENT_3D('',#393,#309,#310);
#247=AXIS2_PLACEMENT_3D('',#395,#311,#312);
#248=AXIS2_PLACEMENT_3D('',#397,#313,#314);
#249=AXIS2_PLACEMENT_3D('',#398,#315,#316);
#250=AXIS2_PLACEMENT_3D('',#400,#318,#319);
#251=DIRECTION('axis',(0.,0.,1.));
#252=DIRECTION('refdir',(1.,0.,0.));
#253=DIRECTION('center_axis',(0.,0.,-1.));
#254=DIRECTION('ref_axis',(-1.,0.,0.));
#255=DIRECTION('center_axis',(0.,0.,1.));
#256=DIRECTION('ref_axis',(-1.,-6.12323399573677E-17,0.));
#257=DIRECTION('center_axis',(-1.22464679914735E-16,-1.,0.));
#258=DIRECTION('ref_axis',(1.,-1.22464679914735E-16,0.));
#259=DIRECTION('center_axis',(0.,0.,-1.));
#260=DIRECTION('ref_axis',(-1.,0.,0.));
#261=DIRECTION('center_axis',(0.,0.,-1.));
#262=DIRECTION('ref_axis',(-1.,0.,0.));
#263=DIRECTION('',(0.342020143325669,4.18853873767699E-17,-0.939692620785908));
#264=DIRECTION('center_axis',(0.,0.,-1.));
#265=DIRECTION('ref_axis',(-1.,-6.12323399573676E-17,0.));
#266=DIRECTION('center_axis',(0.,0.,-1.));
#267=DIRECTION('ref_axis',(-1.,-6.12323399573676E-17,0.));
#268=DIRECTION('center_axis',(0.,0.,1.));
#269=DIRECTION('ref_axis',(1.,0.,0.));
#270=DIRECTION('center_axis',(0.,0.,-1.));
#271=DIRECTION('ref_axis',(1.,0.,0.));
#272=DIRECTION('center_axis',(0.,0.,1.));
#273=DIRECTION('ref_axis',(1.,0.,0.));
#274=DIRECTION('center_axis',(0.,0.,-1.));
#275=DIRECTION('ref_axis',(1.,0.,0.));
#276=DIRECTION('',(0.707106781186547,8.65956056235493E-17,-0.707106781186548));
#277=DIRECTION('center_axis',(0.,0.,1.));
#278=DIRECTION('ref_axis',(1.,0.,0.));
#279=DIRECTION('center_axis',(0.,0.,1.));
#280=DIRECTION('ref_axis',(1.,0.,0.));
#281=DIRECTION('center_axis',(0.,0.,1.));
#282=DIRECTION('ref_axis',(1.,0.,0.));
#283=DIRECTION('',(0.,0.,-1.));
#284=DIRECTION('center_axis',(0.,0.,1.));
#285=DIRECTION('ref_axis',(1.,0.,0.));
#286=DIRECTION('center_axis',(0.,0.,1.));
#287=DIRECTION('ref_axis',(1.,0.,0.));
#288=DIRECTION('center_axis',(0.,0.,1.));
#289=DIRECTION('ref_axis',(1.,0.,0.));
#290=DIRECTION('center_axis',(0.,0.,1.));
#291=DIRECTION('ref_axis',(-1.,0.,0.));
#292=DIRECTION('center_axis',(1.22464679914735E-16,-1.,0.));
#293=DIRECTION('ref_axis',(-1.,-1.22464679914735E-16,0.));
#294=DIRECTION('center_axis',(0.,0.,-1.));
#295=DIRECTION('ref_axis',(-1.,0.,0.));
#296=DIRECTION('center_axis',(0.,0.,-1.));
#297=DIRECTION('ref_axis',(-1.,0.,0.));
#298=DIRECTION('center_axis',(0.,0.,1.));
#299=DIRECTION('ref_axis',(1.,0.,0.));
#300=DIRECTION('center_axis',(0.,0.,1.));
#301=DIRECTION('ref_axis',(-1.,0.,0.));
#302=DIRECTION('center_axis',(0.,0.,1.));
#303=DIRECTION('ref_axis',(-1.,0.,0.));
#304=DIRECTION('',(0.,0.,-1.));
#305=DIRECTION('center_axis',(0.,0.,1.));
#306=DIRECTION('ref_axis',(-1.,0.,0.));
#307=DIRECTION('center_axis',(1.22464679914735E-16,-1.,0.));
#308=DIRECTION('ref_axis',(-1.,-1.22464679914735E-16,0.));
#309=DIRECTION('center_axis',(0.,0.,1.));
#310=DIRECTION('ref_axis',(1.,0.,0.));
#311=DIRECTION('center_axis',(0.,0.,1.));
#312=DIRECTION('ref_axis',(1.,0.,0.));
#313=DIRECTION('center_axis',(0.,0.,1.));
#314=DIRECTION('ref_axis',(1.,0.,0.));
#315=DIRECTION('center_axis',(0.,0.,1.));
#316=DIRECTION('ref_axis',(1.,0.,0.));
#317=DIRECTION('',(0.,0.,-1.));
#318=DIRECTION('center_axis',(0.,0.,1.));
#319=DIRECTION('ref_axis',(1.,0.,0.));
#320=DIRECTION('',(0.,0.,-1.));
#321=CARTESIAN_POINT('',(0.,0.,0.));
#322=CARTESIAN_POINT('Origin',(0.,0.,18.));
#323=CARTESIAN_POINT('',(6.33705946235379,1.5521319173156E-15,18.6840402866513));
#324=CARTESIAN_POINT('Origin',(0.,3.88032979328901E-16,18.6840402866513));
#325=CARTESIAN_POINT('',(4.45767422078197,-5.45907646612232E-16,20.));
#326=CARTESIAN_POINT('Origin',(4.45767422078197,-5.45907646612232E-16,18.));
#327=CARTESIAN_POINT('Origin',(0.,0.,20.));
#328=CARTESIAN_POINT('Origin',(0.,0.,18.5));
#329=CARTESIAN_POINT('',(6.70877048314363,-1.23259516440783E-31,17.6627726504688));
#330=CARTESIAN_POINT('',(6.4040446486007,7.84269278050558E-16,18.5));
#331=CARTESIAN_POINT('',(-6.70877048314363,-8.21587429839609E-16,17.6627726504688));
#332=CARTESIAN_POINT('Origin',(0.,4.10793714919805E-16,17.6627726504688));
#333=CARTESIAN_POINT('Origin',(0.,4.10793714919805E-16,17.6627726504688));
#334=CARTESIAN_POINT('Origin',(-3.37167993933868E-16,0.,20.));
#335=CARTESIAN_POINT('',(-4.,-4.89858719658941E-16,20.));
#336=CARTESIAN_POINT('Origin',(0.,0.,20.));
#337=CARTESIAN_POINT('Origin',(0.,0.,0.5));
#338=CARTESIAN_POINT('',(-8.,9.79717439317883E-16,1.));
#339=CARTESIAN_POINT('Origin',(0.,0.,1.));
#340=CARTESIAN_POINT('',(-7.,-8.57252759403147E-16,0.));
#341=CARTESIAN_POINT('',(-7.5,-9.18485099360515E-16,0.5));
#342=CARTESIAN_POINT('Origin',(0.,0.,0.));
#343=CARTESIAN_POINT('Origin',(0.,0.,0.));
#344=CARTESIAN_POINT('',(-8.,9.79717439317883E-16,4.5));
#345=CARTESIAN_POINT('Origin',(0.,0.,4.5));
#346=CARTESIAN_POINT('',(-8.,-9.79717439317883E-16,0.));
#347=CARTESIAN_POINT('Origin',(-3.37167993933868E-16,0.,0.));
#348=CARTESIAN_POINT('',(-2.25,-2.75545529808154E-16,0.));
#349=CARTESIAN_POINT('Origin',(0.,0.,0.));
#350=CARTESIAN_POINT('Origin',(0.,0.,5.));
#351=CARTESIAN_POINT('',(-7.45,-9.12361865364778E-16,4.5));
#352=CARTESIAN_POINT('Origin',(0.,0.,4.5));
#353=CARTESIAN_POINT('',(-6.95,-8.51129525407411E-16,5.));
#354=CARTESIAN_POINT('Origin',(-7.45,-9.12361865364778E-16,5.));
#355=CARTESIAN_POINT('',(6.95,-8.51129525407411E-16,5.));
#356=CARTESIAN_POINT('Origin',(0.,0.,5.));
#357=CARTESIAN_POINT('Origin',(0.,0.,5.));
#358=CARTESIAN_POINT('Origin',(7.7553251033388E-16,-1.15648231731787E-16,
4.5));
#359=CARTESIAN_POINT('Origin',(0.,0.,0.));
#360=CARTESIAN_POINT('',(6.95,8.51129525407411E-16,16.2946920771661));
#361=CARTESIAN_POINT('',(-6.95,-8.51129525407411E-16,16.2946920771661));
#362=CARTESIAN_POINT('Origin',(0.,0.,16.2946920771661));
#363=CARTESIAN_POINT('',(6.95,8.51129525407411E-16,0.));
#364=CARTESIAN_POINT('Origin',(0.,0.,16.2946920771661));
#365=CARTESIAN_POINT('Ctrl Pts',(-6.95,0.,16.2946920771661));
#366=CARTESIAN_POINT('Ctrl Pts',(-6.95,-6.95,16.2946920771661));
#367=CARTESIAN_POINT('Ctrl Pts',(0.,-6.95,16.2946920771661));
#368=CARTESIAN_POINT('Ctrl Pts',(6.95,-6.95,16.2946920771661));
#369=CARTESIAN_POINT('Ctrl Pts',(6.95,0.,16.2946920771661));
#370=CARTESIAN_POINT('Ctrl Pts',(6.95,6.95,16.2946920771661));
#371=CARTESIAN_POINT('Ctrl Pts',(0.,6.95,16.2946920771661));
#372=CARTESIAN_POINT('Ctrl Pts',(-6.95,6.95,16.2946920771661));
#373=CARTESIAN_POINT('Ctrl Pts',(-6.95,0.,16.2946920771661));
#374=CARTESIAN_POINT('Ctrl Pts',(-6.95,0.,17.));
#375=CARTESIAN_POINT('Ctrl Pts',(-6.95,-6.95,17.));
#376=CARTESIAN_POINT('Ctrl Pts',(0.,-6.95,17.));
#377=CARTESIAN_POINT('Ctrl Pts',(6.95,-6.95,17.));
#378=CARTESIAN_POINT('Ctrl Pts',(6.95,0.,17.));
#379=CARTESIAN_POINT('Ctrl Pts',(6.95,6.95,17.));
#380=CARTESIAN_POINT('Ctrl Pts',(0.,6.95,17.));
#381=CARTESIAN_POINT('Ctrl Pts',(-6.95,6.95,17.));
#382=CARTESIAN_POINT('Ctrl Pts',(-6.95,0.,17.));
#383=CARTESIAN_POINT('Ctrl Pts',(-6.70877048314363,0.,17.6627726504688));
#384=CARTESIAN_POINT('Ctrl Pts',(-6.70877048314363,-6.70877048314363,17.6627726504688));
#385=CARTESIAN_POINT('Ctrl Pts',(0.,-6.70877048314363,17.6627726504688));
#386=CARTESIAN_POINT('Ctrl Pts',(6.70877048314363,-6.70877048314363,17.6627726504688));
#387=CARTESIAN_POINT('Ctrl Pts',(6.70877048314363,0.,17.6627726504688));
#388=CARTESIAN_POINT('Ctrl Pts',(6.70877048314363,6.70877048314363,17.6627726504688));
#389=CARTESIAN_POINT('Ctrl Pts',(0.,6.70877048314363,17.6627726504688));
#390=CARTESIAN_POINT('Ctrl Pts',(-6.70877048314363,6.70877048314363,17.6627726504688));
#391=CARTESIAN_POINT('Ctrl Pts',(-6.70877048314363,0.,17.6627726504688));
#392=CARTESIAN_POINT('Origin',(-2.95,-3.61270805748469E-16,16.2946920771661));
#393=CARTESIAN_POINT('Origin',(0.,0.,10.4));
#394=CARTESIAN_POINT('',(-4.,-4.89858719658941E-16,10.4));
#395=CARTESIAN_POINT('Origin',(0.,0.,10.4));
#396=CARTESIAN_POINT('',(-2.25,-2.75545529808154E-16,10.4));
#397=CARTESIAN_POINT('Origin',(0.,0.,10.4));
#398=CARTESIAN_POINT('Origin',(0.,0.,15.2));
#399=CARTESIAN_POINT('',(-4.,-4.89858719658941E-16,15.2));
#400=CARTESIAN_POINT('Origin',(0.,0.,-8.04318098932431));
#401=CARTESIAN_POINT('',(-2.25,-2.75545529808154E-16,-8.04318098932431));
#402=UNCERTAINTY_MEASURE_WITH_UNIT(LENGTH_MEASURE(0.01),#406,
'DISTANCE_ACCURACY_VALUE',
'Maximum model space distance between geometric entities at asserted c
onnectivities');
#403=UNCERTAINTY_MEASURE_WITH_UNIT(LENGTH_MEASURE(0.01),#406,
'DISTANCE_ACCURACY_VALUE',
'Maximum model space distance between geometric entities at asserted c
onnectivities');
#404=(
GEOMETRIC_REPRESENTATION_CONTEXT(3)
GLOBAL_UNCERTAINTY_ASSIGNED_CONTEXT((#402))
GLOBAL_UNIT_ASSIGNED_CONTEXT((#406,#408,#409))
REPRESENTATION_CONTEXT('','3D')
);
#405=(
GEOMETRIC_REPRESENTATION_CONTEXT(3)
GLOBAL_UNCERTAINTY_ASSIGNED_CONTEXT((#403))
GLOBAL_UNIT_ASSIGNED_CONTEXT((#406,#408,#409))
REPRESENTATION_CONTEXT('','3D')
);
#406=(
LENGTH_UNIT()
NAMED_UNIT(*)
SI_UNIT(.MILLI.,.METRE.)
);
#407=(
LENGTH_UNIT()
NAMED_UNIT(*)
SI_UNIT(.CENTI.,.METRE.)
);
#408=(
NAMED_UNIT(*)
PLANE_ANGLE_UNIT()
SI_UNIT($,.RADIAN.)
);
#409=(
NAMED_UNIT(*)
SI_UNIT($,.STERADIAN.)
SOLID_ANGLE_UNIT()
);
#410=SHAPE_DEFINITION_REPRESENTATION(#411,#412);
#411=PRODUCT_DEFINITION_SHAPE('',$,#414);
#412=SHAPE_REPRESENTATION('',(#219),#404);
#413=PRODUCT_DEFINITION_CONTEXT('part definition',#418,'design');
#414=PRODUCT_DEFINITION('00052583','00052583',#415,#413);
#415=PRODUCT_DEFINITION_FORMATION('',$,#420);
#416=PRODUCT_RELATED_PRODUCT_CATEGORY('00052583','00052583',(#420));
#417=APPLICATION_PROTOCOL_DEFINITION('international standard',
'automotive_design',2009,#418);
#418=APPLICATION_CONTEXT(
'Core Data for Automotive Mechanical Design Process');
#419=PRODUCT_CONTEXT('part definition',#418,'mechanical');
#420=PRODUCT('00052583','00052583','Zentrierzapfen',(#419));
#421=PRESENTATION_STYLE_ASSIGNMENT((#422));
#422=SURFACE_STYLE_USAGE(.BOTH.,#425);
#423=SURFACE_STYLE_RENDERING_WITH_PROPERTIES($,#429,(#424));
#424=SURFACE_STYLE_TRANSPARENT(0.);
#425=SURFACE_SIDE_STYLE('',(#426,#423));
#426=SURFACE_STYLE_FILL_AREA(#427);
#427=FILL_AREA_STYLE('',(#428));
#428=FILL_AREA_STYLE_COLOUR('',#429);
#429=COLOUR_RGB('',0.301960784313725,0.411764705882353,0.509803921568627);
ENDSEC;
END-ISO-10303-21;
