  0
SECTION
  2
HEADER
  9
$ACADVER
  1
AC1009
  9
$INSBASE
 10
0.0
 20
0.0
 30
0.0
  9
$EXTMIN
 10
0.0
 20
0.0
 30
0.0
  9
$EXTMAX
 10
597.6126986833352248
 20
427.1126986833349974
 30
0.0
  9
$LIMMIN
 10
0.0
 20
0.0
  9
$LIMMAX
 10
597.6126986833352248
 20
427.1126986833349974
  9
$ORTHOMODE
 70
     0
  9
$REGENMODE
 70
     1
  9
$FILLMODE
 70
     1
  9
$QTEXTMODE
 70
     0
  9
$MIRRTEXT
 70
     0
  9
$DRAGMODE
 70
     2
  9
$LTSCALE
 40
1.0
  9
$OSMODE
 70
     0
  9
$ATTMODE
 70
     1
  9
$TEXTSIZE
 40
0.2
  9
$TRACEWID
 40
0.05
  9
$TEXTSTYLE
  7
STANDARD
  9
$CLAYER
  8
0
  9
$CELTYPE
  6
BYLAYER
  9
$CECOLOR
 62
   256
  9
$DIMSCALE
 40
1.0
  9
$DIMASZ
 40
0.18
  9
$DIMEXO
 40
0.0625
  9
$DIMDLI
 40
0.38
  9
$DIMRND
 40
0.0
  9
$DIMDLE
 40
0.0
  9
$DIMEXE
 40
0.18
  9
$DIMTP
 40
0.0
  9
$DIMTM
 40
0.0
  9
$DIMTXT
 40
0.18
  9
$DIMCEN
 40
0.09
  9
$DIMTSZ
 40
0.0
  9
$DIMTOL
 70
     0
  9
$DIMLIM
 70
     0
  9
$DIMTIH
 70
     1
  9
$DIMTOH
 70
     1
  9
$DIMSE1
 70
     0
  9
$DIMSE2
 70
     0
  9
$DIMTAD
 70
     0
  9
$DIMZIN
 70
     0
  9
$DIMBLK
  1

  9
$DIMASO
 70
     1
  9
$DIMSHO
 70
     1
  9
$DIMPOST
  1

  9
$DIMAPOST
  1

  9
$DIMALT
 70
     0
  9
$DIMALTD
 70
     2
  9
$DIMALTF
 40
25.3999999999999986
  9
$DIMLFAC
 40
1.0
  9
$DIMTOFL
 70
     0
  9
$DIMTVP
 40
0.0
  9
$DIMTIX
 70
     0
  9
$DIMSOXD
 70
     0
  9
$DIMSAH
 70
     0
  9
$DIMBLK1
  1

  9
$DIMBLK2
  1

  9
$DIMSTYLE
  2
STANDARD
  9
$DIMCLRD
 70
     0
  9
$DIMCLRE
 70
     0
  9
$DIMCLRT
 70
     0
  9
$DIMTFAC
 40
1.0
  9
$DIMGAP
 40
0.09
  9
$LUNITS
 70
     2
  9
$LUPREC
 70
     4
  9
$SKETCHINC
 40
0.1
  9
$FILLETRAD
 40
0.0
  9
$AUNITS
 70
     0
  9
$AUPREC
 70
     0
  9
$MENU
  1
.
  9
$ELEVATION
 40
0.0
  9
$PELEVATION
 40
0.0
  9
$THICKNESS
 40
0.0
  9
$LIMCHECK
 70
     0
  9
$BLIPMODE
 70
     0
  9
$CHAMFERA
 40
0.0
  9
$CHAMFERB
 40
0.0
  9
$SKPOLY
 70
     0
  9
$TDCREATE
 40
2459650.0327199078164995
  9
$TDUPDATE
 40
2459650.0327199078164995
  9
$TDINDWG
 40
0.0000115741
  9
$TDUSRTIMER
 40
0.0000115741
  9
$USRTIMER
 70
     1
  9
$ANGBASE
 50
0.0
  9
$ANGDIR
 70
     0
  9
$PDMODE
 70
     0
  9
$PDSIZE
 40
0.0
  9
$PLINEWID
 40
0.0
  9
$COORDS
 70
     0
  9
$SPLFRAME
 70
     0
  9
$SPLINETYPE
 70
     6
  9
$SPLINESEGS
 70
     8
  9
$ATTDIA
 70
     1
  9
$ATTREQ
 70
     1
  9
$HANDLING
 70
     1
  9
$HANDSEED
  5
341
  9
$SURFTAB1
 70
     6
  9
$SURFTAB2
 70
     6
  9
$SURFTYPE
 70
     6
  9
$SURFU
 70
     6
  9
$SURFV
 70
     6
  9
$UCSNAME
  2

  9
$UCSORG
 10
0.0
 20
0.0
 30
0.0
  9
$UCSXDIR
 10
1.0
 20
0.0
 30
0.0
  9
$UCSYDIR
 10
0.0
 20
1.0
 30
0.0
  9
$PUCSNAME
  2

  9
$PUCSORG
 10
0.0
 20
0.0
 30
0.0
  9
$PUCSXDIR
 10
1.0
 20
0.0
 30
0.0
  9
$PUCSYDIR
 10
0.0
 20
1.0
 30
0.0
  9
$USERI1
 70
     0
  9
$USERI2
 70
     0
  9
$USERI3
 70
     0
  9
$USERI4
 70
     0
  9
$USERI5
 70
     0
  9
$USERR1
 40
0.0
  9
$USERR2
 40
0.0
  9
$USERR3
 40
0.0
  9
$USERR4
 40
0.0
  9
$USERR5
 40
0.0
  9
$WORLDVIEW
 70
     1
  9
$SHADEDGE
 70
     3
  9
$SHADEDIF
 70
    70
  9
$TILEMODE
 70
     1
  9
$MAXACTVP
 70
    64
  9
$PLIMCHECK
 70
     0
  9
$PEXTMIN
 10
0.0
 20
0.0
 30
0.0
  9
$PEXTMAX
 10
597.6126986833352248
 20
427.1126986833349974
 30
0.0
  9
$PLIMMIN
 10
0.0
 20
0.0
  9
$PLIMMAX
 10
597.6126986833352248
 20
427.1126986833349974
  9
$UNITMODE
 70
     0
  9
$VISRETAIN
 70
     1
  9
$PLINEGEN
 70
     0
  9
$PSLTSCALE
 70
     1
  0
ENDSEC
  0
SECTION
  2
TABLES
  0
TABLE
  2
VPORT
 70
     1
  0
VPORT
  2
*ACTIVE
 70
     0
 10
0.0
 20
0.0
 11
1.0
 21
1.0
 12
-135.9832552790539069
 22
6.6330866992893496
 13
0.0
 23
0.0
 14
1.0
 24
1.0
 15
0.0
 25
0.0
 16
0.0
 26
0.0
 36
1.0
 17
0.0
 27
0.0
 37
0.0
 40
427.1126986833349974
 41
1.3991920645899829
 42
50.0
 43
0.0
 44
0.0
 50
0.0
 51
0.0
 71
     0
 72
   100
 73
     1
 74
     1
 75
     0
 76
     0
 77
     0
 78
     0
  0
ENDTAB
  0
TABLE
  2
LTYPE
 70
    59
  0
LTYPE
  2
CONTINUOUS
 70
     0
  3
Solid line
 72
    65
 73
     0
 40
0.0
  0
LTYPE
  2
SECTION_VIEW_LINES
 70
     0
  3
Section View Lines
 72
    65
 73
     4
 40
0.8406
 49
0.6614
 49
-0.0827
 49
0.0138
 49
-0.0827
  0
LTYPE
  2
CHAIN
 70
     0
  3
Chain ____ _ ____ _ ____ _ ____ _ ____ _ ____
 72
    65
 73
     4
 40
0.3543
 49
0.2362
 49
-0.0295
 49
0.0591
 49
-0.0295
  0
LTYPE
  2
DASH_DOT
 70
     0
  3
Dash dot _._._._._._._._._._._._._._._.
 72
    65
 73
     4
 40
0.37
 49
0.24
 49
-0.06
 49
0.01
 49
-0.06
  0
LTYPE
  2
DASH_DOUBLE_DOT
 70
     0
  3
Dash Double Dot __ __ . __ __ . __ __ . __ _
 72
    65
 73
     6
 40
0.4398
 49
0.24
 49
-0.06
 49
0.0098
 49
-0.06
 49
0.01
 49
-0.06
  0
LTYPE
  2
DASH_TRIPLE_DOT
 70
     0
  3
Dash Triple-Dot _ . . . _ . . . _ . . . _
 72
    65
 73
     8
 40
0.51
 49
0.24
 49
-0.06
 49
0.01
 49
-0.06
 49
0.01
 49
-0.06
 49
0.01
 49
-0.06
  0
LTYPE
  2
DASHED
 70
     0
  3
Dashed __ __ __ __ __ __ __ __ __ __ __ __ __ _
 72
    65
 73
     2
 40
0.2067
 49
0.1654
 49
-0.0413
  0
LTYPE
  2
DASHED_SPACE
 70
     0
  3
Dashed Space _._._._._._._._._._._._._._._.
 72
    65
 73
     2
 40
0.2067
 49
0.1654
 49
-0.0413
  0
LTYPE
  2
DOTTED
 70
     0
  3
Dotted . . . . . . . . . . . . . . . . . . . . 
 72
    65
 73
     2
 40
0.0482
 49
0.0069
 49
-0.0413
  0
LTYPE
  2
DOUBLE_DASH_CHAIN
 70
     0
  3
Double Dash Chain ___ _ _ ___ _ _ ___ _ _ ___ _
 72
    65
 73
     6
 40
1.2402999999999991
 49
0.6614
 49
-0.0827
 49
0.1654
 49
-0.0827
 49
0.1654
 49
-0.0827
  0
LTYPE
  2
DOUBLE_DASH_DOT
 70
     0
  3
Double Dash Dot __ __ . __ __ . __ __ . __ _
 72
    65
 73
     6
 40
0.67
 49
0.24
 49
-0.06
 49
0.24
 49
-0.06
 49
0.01
 49
-0.06
  0
LTYPE
  2
DOUBLE_DASH_DOUBLE_DOT
 70
     0
  3
Double-dash double-dot _ _ . . _ _ . . _
 72
    65
 73
     8
 40
0.7400000000000001
 49
0.24
 49
-0.06
 49
0.24
 49
-0.06
 49
0.01
 49
-0.06
 49
0.01
 49
-0.06
  0
LTYPE
  2
DOUBLE_DASH_TRIPLE_DOT
 70
     0
  3
Double Dash Triple Dot __ __ . . . __ __ . . .
 72
    65
 73
    10
 40
0.8100000000000001
 49
0.24
 49
-0.06
 49
0.24
 49
-0.06
 49
0.01
 49
-0.06
 49
0.01
 49
-0.06
 49
0.01
 49
-0.06
  0
LTYPE
  2
LONG_DASH_DOTTED
 70
     0
  3
Long-Dash Dot ____ . ____ . ____ . ____ . _
 72
    65
 73
     4
 40
0.3001
 49
0.2362
 49
-0.0295
 49
0.0049
 49
-0.0295
  0
LTYPE
  2
LONG_DASH_DOUBLE_DOT
 70
     0
  3
Long Dash Double Dot ____ . . ____ . . ____ . .
 72
    65
 73
     6
 40
0.3345
 49
0.2362
 49
-0.0295
 49
0.0049
 49
-0.0295
 49
0.0049
 49
-0.0295
  0
LTYPE
  2
LONG_DASH_TRIPLE_DOT
 70
     0
  3
Long Dash Triple Dot ____ ... ____ ... ____
 72
    65
 73
     8
 40
0.75
 49
0.48
 49
-0.06
 49
0.01
 49
-0.06
 49
0.01
 49
-0.06
 49
0.01
 49
-0.06
  0
LTYPE
  2
BORDER
 70
     0
  3
Border __ __ . __ __ . __ __ . __ __ . __ __ .
 72
    65
 73
     6
 40
44.4500000000000028
 49
12.6999999999999993
 49
-6.3499999999999988
 49
12.6999999999999993
 49
-6.3499999999999988
 49
0.0
 49
-6.3499999999999988
  0
LTYPE
  2
BORDER2
 70
     0
  3
Border (.5x) __.__.__.__.__.__.__.__.__.__.__.
 72
    65
 73
     6
 40
22.2250000000000014
 49
6.3499999999999988
 49
-3.1749999999999989
 49
6.3499999999999988
 49
-3.1749999999999989
 49
0.0
 49
-3.1749999999999989
  0
LTYPE
  2
BORDERX2
 70
     0
  3
Border (2x) ____  ____  .  ____  ____  .  ___
 72
    65
 73
     6
 40
88.9000000000000057
 49
25.3999999999999986
 49
-12.6999999999999993
 49
25.3999999999999986
 49
-12.6999999999999993
 49
0.0
 49
-12.6999999999999993
  0
LTYPE
  2
CENTER
 70
     0
  3
Center ____ _ ____ _ ____ _ ____ _ ____ _ ____
 72
    65
 73
     4
 40
50.7999999999999972
 49
31.75
 49
-6.3499999999999988
 49
6.3499999999999988
 49
-6.3499999999999988
  0
LTYPE
  2
CENTER2
 70
     0
  3
Center (.5x) ___ _ ___ _ ___ _ ___ _ ___ _ ___
 72
    65
 73
     4
 40
28.5749999999999993
 49
19.0500000000000007
 49
-3.1749999999999989
 49
3.1749999999999989
 49
-3.1749999999999989
  0
LTYPE
  2
CENTERX2
 70
     0
  3
Center (2x) ________  __  ________  __  _____
 72
    65
 73
     4
 40
101.5999999999999943
 49
63.5
 49
-12.6999999999999993
 49
12.6999999999999993
 49
-12.6999999999999993
  0
LTYPE
  2
DASHDOT2
 70
     0
  3
Dash dot (.5x) _._._._._._._._._._._._._._._.
 72
    65
 73
     4
 40
12.6999999999999993
 49
6.3499999999999988
 49
-3.1749999999999989
 49
0.0
 49
-3.1749999999999989
  0
LTYPE
  2
DASHDOTX2
 70
     0
  3
Dash dot (2x) ____  .  ____  .  ____  .  ___
 72
    65
 73
     4
 40
50.7999999999999972
 49
25.3999999999999986
 49
-12.6999999999999993
 49
0.0
 49
-12.6999999999999993
  0
LTYPE
  2
DASHED2
 70
     0
  3
Dashed (.5x) _ _ _ _ _ _ _ _ _ _ _ _ _ _ _ _ _
 72
    65
 73
     2
 40
9.5249999999999986
 49
6.3499999999999988
 49
-3.1749999999999989
  0
LTYPE
  2
DASHEDX2
 70
     0
  3
Dashed (2x) ____  ____  ____  ____  ____  ___
 72
    65
 73
     2
 40
38.1000000000000014
 49
25.3999999999999986
 49
-12.6999999999999993
  0
LTYPE
  2
DIVIDE
 70
     0
  3
Divide ____ . . ____ . . ____ . . ____ . . ____
 72
    65
 73
     6
 40
31.75
 49
12.6999999999999993
 49
-6.3499999999999988
 49
0.0
 49
-6.3499999999999988
 49
0.0
 49
-6.3499999999999988
  0
LTYPE
  2
DIVIDE2
 70
     0
  3
Divide (.5x) __..__..__..__..__..__..__..__.._
 72
    65
 73
     6
 40
15.875
 49
6.3499999999999988
 49
-3.1749999999999989
 49
0.0
 49
-3.1749999999999989
 49
0.0
 49
-3.1749999999999989
  0
LTYPE
  2
DIVIDEX2
 70
     0
  3
Divide (2x) ________  .  .  ________  .  .  _
 72
    65
 73
     6
 40
63.4999999999999929
 49
25.3999999999999986
 49
-12.6999999999999993
 49
0.0
 49
-12.6999999999999993
 49
0.0
 49
-12.6999999999999993
  0
LTYPE
  2
DOT
 70
     0
  3
Dot . . . . . . . . . . . . . . . . . . . . . .
 72
    65
 73
     2
 40
6.3499999999999988
 49
0.0
 49
-6.3499999999999988
  0
LTYPE
  2
DOT2
 70
     0
  3
Dot (.5x) .....................................
 72
    65
 73
     2
 40
3.1749999999999989
 49
0.0
 49
-3.1749999999999989
  0
LTYPE
  2
DOTX2
 70
     0
  3
Dot (2x) .  .  .  .  .  .  .  .  .  .  .  .  . 
 72
    65
 73
     2
 40
12.6999999999999993
 49
0.0
 49
-12.6999999999999993
  0
LTYPE
  2
HIDDEN
 70
     0
  3
Hidden __ __ __ __ __ __ __ __ __ __ __ __ __ _
 72
    65
 73
     2
 40
9.5249999999999986
 49
6.3499999999999988
 49
-3.1749999999999989
  0
LTYPE
  2
HIDDEN2
 70
     0
  3
Hidden (.5x) _ _ _ _ _ _ _ _ _ _ _ _ _ _ _ _ _
 72
    65
 73
     2
 40
4.7624999999999993
 49
3.1749999999999989
 49
-1.587499999999999
  0
LTYPE
  2
HIDDENX2
 70
     0
  3
Hidden (2x) ____ ____ ____ ____ ____ ____ ____
 72
    65
 73
     2
 40
19.0500000000000007
 49
12.6999999999999993
 49
-6.3499999999999988
  0
LTYPE
  2
PHANTOM
 70
     0
  3
Phantom ______  __  __  ______  __  __  ______
 72
    65
 73
     6
 40
63.5
 49
31.75
 49
-6.3499999999999988
 49
6.3499999999999988
 49
-6.3499999999999988
 49
6.3499999999999988
 49
-6.3499999999999988
  0
LTYPE
  2
PHANTOM2
 70
     0
  3
Phantom (.5x) ___ _ _ ___ _ _ ___ _ _ ___ _ _
 72
    65
 73
     6
 40
31.75
 49
15.875
 49
-3.1749999999999989
 49
3.1749999999999989
 49
-3.1749999999999989
 49
3.1749999999999989
 49
-3.1749999999999989
  0
LTYPE
  2
PHANTOMX2
 70
     0
  3
Phantom (2x) ____________    ____    ____   _
 72
    65
 73
     6
 40
127.0
 49
63.5
 49
-12.6999999999999993
 49
12.6999999999999993
 49
-12.6999999999999993
 49
12.6999999999999993
 49
-12.6999999999999993
  0
LTYPE
  2
ACAD_ISO02W100
 70
     0
  3
ISO dash __ __ __ __ __ __ __ __ __ __ __ __ __
 72
    65
 73
     2
 40
15.0
 49
12.0
 49
-3.0
  0
LTYPE
  2
ACAD_ISO03W100
 70
     0
  3
ISO dash space __    __    __    __    __    __
 72
    65
 73
     2
 40
30.0
 49
12.0
 49
-18.0
  0
LTYPE
  2
ACAD_ISO04W100
 70
     0
  3
ISO long-dash dot ____ . ____ . ____ . ____ . _
 72
    65
 73
     4
 40
30.0
 49
24.0
 49
-3.0
 49
0.0
 49
-3.0
  0
LTYPE
  2
ACAD_ISO05W100
 70
     0
  3
ISO long-dash double-dot ____ .. ____ .. ____ .
 72
    65
 73
     6
 40
33.0
 49
24.0
 49
-3.0
 49
0.0
 49
-3.0
 49
0.0
 49
-3.0
  0
LTYPE
  2
ACAD_ISO06W100
 70
     0
  3
ISO long-dash triple-dot ____ ... ____ ... ____
 72
    65
 73
     8
 40
36.0
 49
24.0
 49
-3.0
 49
0.0
 49
-3.0
 49
0.0
 49
-3.0
 49
0.0
 49
-3.0
  0
LTYPE
  2
ACAD_ISO07W100
 70
     0
  3
ISO dot . . . . . . . . . . . . . . . . . . . .
 72
    65
 73
     2
 40
3.0
 49
0.0
 49
-3.0
  0
LTYPE
  2
ACAD_ISO08W100
 70
     0
  3
ISO long-dash short-dash ____ __ ____ __ ____ _
 72
    65
 73
     4
 40
36.0
 49
24.0
 49
-3.0
 49
6.0
 49
-3.0
  0
LTYPE
  2
ACAD_ISO09W100
 70
     0
  3
ISO long-dash double-short-dash ____ __ __ ____
 72
    65
 73
     6
 40
45.0
 49
24.0
 49
-3.0
 49
6.0
 49
-3.0
 49
6.0
 49
-3.0
  0
LTYPE
  2
ACAD_ISO10W100
 70
     0
  3
ISO dash dot __ . __ . __ . __ . __ . __ . __ .
 72
    65
 73
     4
 40
18.0
 49
12.0
 49
-3.0
 49
0.0
 49
-3.0
  0
LTYPE
  2
ACAD_ISO11W100
 70
     0
  3
ISO double-dash dot __ __ . __ __ . __ __ . __ 
 72
    65
 73
     6
 40
33.0
 49
12.0
 49
-3.0
 49
12.0
 49
-3.0
 49
0.0
 49
-3.0
  0
LTYPE
  2
ACAD_ISO12W100
 70
     0
  3
ISO dash double-dot __ . . __ . . __ . . __ . .
 72
    65
 73
     6
 40
21.0
 49
12.0
 49
-3.0
 49
0.0
 49
-3.0
 49
0.0
 49
-3.0
  0
LTYPE
  2
ACAD_ISO13W100
 70
     0
  3
ISO double-dash double-dot __ __ . . __ __ . . 
 72
    65
 73
     8
 40
36.0
 49
12.0
 49
-3.0
 49
12.0
 49
-3.0
 49
0.0
 49
-3.0
 49
0.0
 49
-3.0
  0
LTYPE
  2
ACAD_ISO14W100
 70
     0
  3
ISO dash triple-dot __ . . . __ . . . __ . . . 
 72
    65
 73
     8
 40
24.0
 49
12.0
 49
-3.0
 49
0.0
 49
-3.0
 49
0.0
 49
-3.0
 49
0.0
 49
-3.0
  0
LTYPE
  2
ACAD_ISO15W100
 70
     0
  3
ISO double-dash triple-dot __ __ . . . __ __ . 
 72
    65
 73
    10
 40
39.0
 49
12.0
 49
-3.0
 49
12.0
 49
-3.0
 49
0.0
 49
-3.0
 49
0.0
 49
-3.0
 49
0.0
 49
-3.0
  0
LTYPE
  2
FENCELINE1
 70
     0
  3
Fenceline circle ----0-----0----0-----0----0---
 72
    65
 73
     4
 40
36.8299999999999983
 49
6.3499999999999988
 49
-2.54
 49
-2.54
 49
25.3999999999999986
  0
LTYPE
  2
FENCELINE2
 70
     0
  3
Fenceline square ----[]-----[]----[]-----[]----
 72
    65
 73
     4
 40
36.8299999999999983
 49
6.3499999999999988
 49
-2.54
 49
-2.54
 49
25.3999999999999986
  0
LTYPE
  2
TRACKS
 70
     0
  3
Tracks -|-|-|-|-|-|-|-|-|-|-|-|-|-|-|-|-|-|-|-|
 72
    65
 73
     2
 40
7.6200000000000001
 49
3.8100000000000001
 49
3.8100000000000001
  0
LTYPE
  2
BATTING
 70
     0
  3
Batting SSSSSSSSSSSSSSSSSSSSSSSSSSSSSSSSSSSSSSS
 72
    65
 73
     4
 40
10.1625399999999999
 49
0.00254
 49
-2.54
 49
-5.0800000000000001
 49
-2.54
  0
LTYPE
  2
HOT_WATER_SUPPLY
 70
     0
  3
Hot water supply ---- HW ---- HW ---- HW ----
 72
    65
 73
     3
 40
22.8599999999999994
 49
12.6999999999999993
 49
-5.0800000000000001
 49
-5.0800000000000001
  0
LTYPE
  2
GAS_LINE
 70
     0
  3
Gas line ----GAS----GAS----GAS----GAS----GAS---
 72
    65
 73
     3
 40
24.129999999999999
 49
12.6999999999999993
 49
-5.0800000000000001
 49
-6.3499999999999988
  0
LTYPE
  2
ZIGZAG
 70
     0
  3
Zig zag /\/\/\/\/\/\/\/\/\/\/\/\/\/\/\/\/\/\/\/
 72
    65
 73
     4
 40
20.32254
 49
0.00254
 49
-5.0800000000000001
 49
-10.1600000000000001
 49
-5.0800000000000001
  0
ENDTAB
  0
TABLE
  2
LAYER
 70
     1
  0
LAYER
  2
0
 70
     0
 62
     7
  6
CONTINUOUS
  0
ENDTAB
  0
TABLE
  2
STYLE
 70
     5
  0
STYLE
  2
STANDARD
 70
     0
 40
0.0
 41
1.0
 50
0.0
 71
     0
 42
0.2
  3
txt
  4

  0
STYLE
  2
ANNOTATIVE
 70
     0
 40
0.0
 41
1.0
 50
0.0
 71
     0
 42
0.2
  3
txt
  4

  0
STYLE
  2

 70
     1
 40
0.0
 41
1.0
 50
0.0
 71
     0
 42
0.2
  3
ltypeshp.shx
  4

  0
STYLE
  2
TEXT_NáčRTU__ISO__-_3DA
 70
     0
 40
0.0
 41
1.0
 50
0.0
 71
     0
 42
0.2
  3
txt.shx
  4
bigfont.shx
  0
STYLE
  2
TEXT_POZNáMKY__DIN__-_3DA
 70
     0
 40
0.0
 41
1.0
 50
0.0
 71
     0
 42
0.2
  3
txt.shx
  4
bigfont.shx
  0
ENDTAB
  0
TABLE
  2
VIEW
 70
     0
  0
ENDTAB
  0
TABLE
  2
UCS
 70
     0
  0
ENDTAB
  0
TABLE
  2
APPID
 70
     3
  0
APPID
  2
ACAD
 70
     0
  0
APPID
  2
ACADANNOTATIVE
 70
     0
  0
APPID
  2
ACAD_MLEADERVER
 70
     0
  0
ENDTAB
  0
TABLE
  2
DIMSTYLE
 70
     2
  0
DIMSTYLE
  2
STANDARD
 70
     0
  3

  4

  5

  6

  7

 40
1.0
 41
0.18
 42
0.0625
 43
0.38
 44
0.18
 45
0.0
 46
0.0
 47
0.0
 48
0.0
140
0.18
141
0.09
142
0.0
143
25.3999999999999986
144
1.0
145
0.0
146
1.0
147
0.09
 71
     0
 72
     0
 73
     1
 74
     1
 75
     0
 76
     0
 77
     0
 78
     0
170
     0
171
     2
172
     0
173
     0
174
     0
175
     0
176
     0
177
     0
178
     0
  0
DIMSTYLE
  2
ANNOTATIVE
 70
     0
  3

  4

  5

  6

  7

 40
1.0
 41
0.18
 42
0.0625
 43
0.38
 44
0.18
 45
0.0
 46
0.0
 47
0.0
 48
0.0
140
0.18
141
0.09
142
0.0
143
25.3999999999999986
144
1.0
145
0.0
146
1.0
147
0.09
 71
     0
 72
     0
 73
     1
 74
     1
 75
     0
 76
     0
 77
     0
 78
     0
170
     0
171
     2
172
     0
173
     0
174
     0
175
     0
176
     0
177
     0
178
     0
  0
ENDTAB
  0
ENDSEC
  0
SECTION
  2
BLOCKS
  0
BLOCK
  8
0
  2
$MODEL_SPACE
 70
     0
 10
0.0
 20
0.0
 30
0.0
  3
$MODEL_SPACE
  1

  0
ENDBLK
  5
72
  8
0
  0
BLOCK
 67
     1
  8
0
  2
$PAPER_SPACE
 70
     0
 10
0.0
 20
0.0
 30
0.0
  3
$PAPER_SPACE
  1

  0
ENDBLK
  5
6E
 67
     1
  8
0
  0
ENDSEC
  0
SECTION
  2
ENTITIES
  0
POLYLINE
  5
B6
  8
0
 66
     1
 10
0.0
 20
0.0
 30
0.0
 70
     1
  0
VERTEX
  5
B7
  8
0
 10
48.2324734734841272
 20
151.6330866992892936
 30
0.0
 42
-0.1989123673796586
  0
VERTEX
  5
B8
  8
0
 10
62.3746090972151208
 20
145.7752223230201878
 30
0.0
  0
VERTEX
  5
BA
  8
0
 10
80.6588803446769731
 20
127.4909510755583
 30
0.0
 42
-0.1989123673796584
  0
VERTEX
  5
BB
  8
0
 10
86.5167447209460505
 20
113.3488154518273063
 30
0.0
  0
VERTEX
  5
BC
  8
0
 10
86.5167447209459652
 20
-100.0826420532487049
 30
0.0
 42
-0.1989123673796583
  0
VERTEX
  5
BD
  8
0
 10
80.6588803446769305
 20
-114.2247776769796985
 30
0.0
  0
VERTEX
  5
BE
  8
0
 10
62.3746090972150498
 20
-132.5090489244416005
 30
0.0
 42
-0.1989123673796577
  0
VERTEX
  5
BF
  8
0
 10
48.2324734734841272
 20
-138.3669133007105927
 30
0.0
  0
VERTEX
  5
C0
  8
0
 10
-320.1989840315920901
 20
-138.3669133007105074
 30
0.0
 42
-0.1989123673796573
  0
VERTEX
  5
C1
  8
0
 10
-334.3411196553229274
 20
-132.5090489244414869
 30
0.0
  0
VERTEX
  5
C2
  8
0
 10
-352.6253909027848863
 20
-114.2247776769795991
 30
0.0
 42
-0.1989123673796562
  0
VERTEX
  5
C3
  8
0
 10
-358.4832552790539921
 20
-100.0826420532487049
 30
0.0
  0
VERTEX
  5
C4
  8
0
 10
-358.4832552790539921
 20
113.3488154518274058
 30
0.0
 42
-0.1989123673796575
  0
VERTEX
  5
C5
  8
0
 10
-352.6253909027848863
 20
127.4909510755583995
 30
0.0
  0
VERTEX
  5
C6
  8
0
 10
-334.3411196553229843
 20
145.7752223230201878
 30
0.0
 42
-0.1989123673796576
  0
VERTEX
  5
C7
  8
0
 10
-320.1989840315920901
 20
151.6330866992892936
 30
0.0
  0
SEQEND
  5
B9
  8
0
  0
POLYLINE
  5
C9
  8
0
 66
     1
 10
0.0
 20
0.0
 30
0.0
 70
     1
  0
VERTEX
  5
CA
  8
0
 10
-403.4832552790539921
 20
-163.3669133007107064
 30
0.0
 42
0.414213562373094
  0
VERTEX
  5
CB
  8
0
 10
-383.4832552790539921
 20
-183.3669133007105927
 30
0.0
  0
VERTEX
  5
CD
  8
0
 10
111.5167447209460931
 20
-183.3669133007107064
 30
0.0
 42
0.414213562373094
  0
VERTEX
  5
CE
  8
0
 10
131.5167447209462068
 20
-163.3669133007107064
 30
0.0
  0
VERTEX
  5
CF
  8
0
 10
131.5167447209460931
 20
176.6330866992894073
 30
0.0
 42
0.414213562373093
  0
VERTEX
  5
D0
  8
0
 10
111.5167447209460931
 20
196.6330866992892084
 30
0.0
  0
VERTEX
  5
D1
  8
0
 10
-383.4832552790539921
 20
196.6330866992892936
 30
0.0
 42
0.4142135623730951
  0
VERTEX
  5
D2
  8
0
 10
-403.4832552790539921
 20
176.6330866992892936
 30
0.0
  0
SEQEND
  5
CC
  8
0
  0
CIRCLE
  5
D3
  8
0
 10
63.5167447209460718
 20
-169.3669133007105074
 30
0.0
 40
9.4999999999999982
  0
CIRCLE
  5
D4
  8
0
 10
63.5167447209460718
 20
182.6330866992892936
 30
0.0
 40
9.4999999999999982
  0
CIRCLE
  5
D5
  8
0
 10
-380.9832552790538784
 20
6.6330866992893434
 30
0.0
 40
2.75
  0
CIRCLE
  5
D6
  8
0
 10
-135.9832552790539069
 20
174.1330866992892084
 30
0.0
 40
2.75
  0
CIRCLE
  5
D7
  8
0
 10
109.0167447209459937
 20
6.6330866992893434
 30
0.0
 40
2.75
  0
CIRCLE
  5
D8
  8
0
 10
-135.9832552790539069
 20
-160.8669133007105074
 30
0.0
 40
2.75
  0
CIRCLE
  5
D9
  8
0
 10
-335.4832552790539921
 20
182.6330866992892084
 30
0.0
 40
9.4999999999999982
  0
CIRCLE
  5
DA
  8
0
 10
-335.4832552790539921
 20
-169.3669133007105074
 30
0.0
 40
9.4999999999999982
  0
POLYLINE
  5
DB
  8
0
 10
-384.4207716288786969
 20
-164.9402255037654754
 30
0.0
 66
     1
 70
     8
  0
VERTEX
  8
0
  5
139
 10
-384.421
 20
-164.940
 30
0.00000
  70
    32
  0
VERTEX
  8
0
  5
13A
 10
-383.589
 20
-165.704
 30
0.00000
  70
    32
  0
VERTEX
  8
0
  5
13B
 10
-382.721
 20
-166.426
 30
0.00000
  70
    32
  0
VERTEX
  8
0
  5
13C
 10
-381.819
 20
-167.104
 30
0.00000
  70
    32
  0
VERTEX
  8
0
  5
13D
 10
-380.884
 20
-167.737
 30
0.00000
  70
    32
  0
VERTEX
  8
0
  5
13E
 10
-379.919
 20
-168.323
 30
0.00000
  70
    32
  0
VERTEX
  8
0
  5
13F
 10
-378.927
 20
-168.862
 30
0.00000
  70
    32
  0
VERTEX
  8
0
  5
140
 10
-377.909
 20
-169.350
 30
0.00000
  70
    32
  0
VERTEX
  8
0
  5
141
 10
-376.868
 20
-169.789
 30
0.00000
  70
    32
  0
VERTEX
  8
0
  5
142
 10
-375.807
 20
-170.175
 30
0.00000
  70
    32
  0
VERTEX
  8
0
  5
143
 10
-374.728
 20
-170.509
 30
0.00000
  70
    32
  0
VERTEX
  8
0
  5
144
 10
-373.634
 20
-170.790
 30
0.00000
  70
    32
  0
VERTEX
  8
0
  5
145
 10
-372.527
 20
-171.016
 30
0.00000
  70
    32
  0
VERTEX
  8
0
  5
146
 10
-371.411
 20
-171.188
 30
0.00000
  70
    32
  0
VERTEX
  8
0
  5
147
 10
-370.287
 20
-171.305
 30
0.00000
  70
    32
  0
VERTEX
  8
0
  5
148
 10
-369.158
 20
-171.367
 30
0.00000
  70
    32
  0
VERTEX
  8
0
  5
149
 10
-368.028
 20
-171.373
 30
0.00000
  70
    32
  0
VERTEX
  8
0
  5
14A
 10
-366.899
 20
-171.324
 30
0.00000
  70
    32
  0
VERTEX
  8
0
  5
14B
 10
-365.773
 20
-171.219
 30
0.00000
  70
    32
  0
VERTEX
  8
0
  5
14C
 10
-364.654
 20
-171.059
 30
0.00000
  70
    32
  0
VERTEX
  8
0
  5
14D
 10
-363.544
 20
-170.845
 30
0.00000
  70
    32
  0
VERTEX
  8
0
  5
14E
 10
-362.445
 20
-170.576
 30
0.00000
  70
    32
  0
VERTEX
  8
0
  5
14F
 10
-361.361
 20
-170.254
 30
0.00000
  70
    32
  0
VERTEX
  8
0
  5
150
 10
-360.294
 20
-169.879
 30
0.00000
  70
    32
  0
VERTEX
  8
0
  5
151
 10
-359.246
 20
-169.452
 30
0.00000
  70
    32
  0
VERTEX
  8
0
  5
152
 10
-358.221
 20
-168.974
 30
0.00000
  70
    32
  0
VERTEX
  8
0
  5
153
 10
-357.220
 20
-168.447
 30
0.00000
  70
    32
  0
VERTEX
  8
0
  5
154
 10
-356.246
 20
-167.871
 30
0.00000
  70
    32
  0
VERTEX
  8
0
  5
155
 10
-355.301
 20
-167.248
 30
0.00000
  70
    32
  0
VERTEX
  8
0
  5
156
 10
-354.388
 20
-166.580
 30
0.00000
  70
    32
  0
VERTEX
  8
0
  5
157
 10
-353.509
 20
-165.868
 30
0.00000
  70
    32
  0
VERTEX
  8
0
  5
158
 10
-352.666
 20
-165.113
 30
0.00000
  70
    32
  0
VERTEX
  8
0
  5
159
 10
-351.860
 20
-164.318
 30
0.00000
  70
    32
  0
VERTEX
  8
0
  5
15A
 10
-351.094
 20
-163.485
 30
0.00000
  70
    32
  0
VERTEX
  8
0
  5
15B
 10
-350.371
 20
-162.615
 30
0.00000
  70
    32
  0
VERTEX
  8
0
  5
15C
 10
-349.690
 20
-161.711
 30
0.00000
  70
    32
  0
VERTEX
  8
0
  5
15D
 10
-349.055
 20
-160.774
 30
0.00000
  70
    32
  0
VERTEX
  8
0
  5
15E
 10
-348.466
 20
-159.808
 30
0.00000
  70
    32
  0
VERTEX
  8
0
  5
15F
 10
-347.926
 20
-158.814
 30
0.00000
  70
    32
  0
VERTEX
  8
0
  5
160
 10
-347.434
 20
-157.795
 30
0.00000
  70
    32
  0
VERTEX
  8
0
  5
161
 10
-346.994
 20
-156.753
 30
0.00000
  70
    32
  0
VERTEX
  8
0
  5
162
 10
-346.604
 20
-155.691
 30
0.00000
  70
    32
  0
VERTEX
  8
0
  5
163
 10
-346.268
 20
-154.611
 30
0.00000
  70
    32
  0
VERTEX
  8
0
  5
164
 10
-345.985
 20
-153.516
 30
0.00000
  70
    32
  0
VERTEX
  8
0
  5
165
 10
-345.755
 20
-152.409
 30
0.00000
  70
    32
  0
VERTEX
  8
0
  5
166
 10
-345.581
 20
-151.292
 30
0.00000
  70
    32
  0
VERTEX
  8
0
  5
167
 10
-345.461
 20
-150.167
 30
0.00000
  70
    32
  0
VERTEX
  8
0
  5
168
 10
-345.397
 20
-149.039
 30
0.00000
  70
    32
  0
VERTEX
  8
0
  5
169
 10
-345.388
 20
-147.908
 30
0.00000
  70
    32
  0
VERTEX
  8
0
  5
16A
 10
-345.434
 20
-146.779
 30
0.00000
  70
    32
  0
VERTEX
  8
0
  5
16B
 10
-345.536
 20
-145.654
 30
0.00000
  70
    32
  0
VERTEX
  8
0
  5
16C
 10
-345.693
 20
-144.535
 30
0.00000
  70
    32
  0
VERTEX
  8
0
  5
16D
 10
-345.905
 20
-143.425
 30
0.00000
  70
    32
  0
VERTEX
  8
0
  5
16E
 10
-346.171
 20
-142.327
 30
0.00000
  70
    32
  0
VERTEX
  8
0
  5
16F
 10
-346.491
 20
-141.243
 30
0.00000
  70
    32
  0
VERTEX
  8
0
  5
170
 10
-346.863
 20
-140.177
 30
0.00000
  70
    32
  0
VERTEX
  8
0
  5
171
 10
-347.287
 20
-139.131
 30
0.00000
  70
    32
  0
VERTEX
  8
0
  5
172
 10
-347.762
 20
-138.106
 30
0.00000
  70
    32
  0
VERTEX
  8
0
  5
173
 10
-348.287
 20
-137.106
 30
0.00000
  70
    32
  0
VERTEX
  8
0
  5
174
 10
-348.861
 20
-136.134
 30
0.00000
  70
    32
  0
VERTEX
  8
0
  5
175
 10
-349.481
 20
-135.190
 30
0.00000
  70
    32
  0
VERTEX
  8
0
  5
176
 10
-350.147
 20
-134.279
 30
0.00000
  70
    32
  0
VERTEX
  8
0
  5
177
 10
-350.857
 20
-133.401
 30
0.00000
  70
    32
  0
VERTEX
  8
0
  5
178
 10
-351.610
 20
-132.560
 30
0.00000
  70
    32
  0
VERTEX
  8
0
  5
179
 10
-352.403
 20
-131.756
 30
0.00000
  70
    32
  0
VERTEX
  8
0
  5
17A
 10
-353.234
 20
-130.992
 30
0.00000
  70
    32
  0
VERTEX
  8
0
  5
17B
 10
-354.102
 20
-130.271
 30
0.00000
  70
    32
  0
VERTEX
  8
0
  5
17C
 10
-355.005
 20
-129.592
 30
0.00000
  70
    32
  0
VERTEX
  8
0
  5
17D
 10
-355.939
 20
-128.959
 30
0.00000
  70
    32
  0
VERTEX
  8
0
  5
17E
 10
-356.904
 20
-128.373
 30
0.00000
  70
    32
  0
VERTEX
  8
0
  5
17F
 10
-357.897
 20
-127.835
 30
0.00000
  70
    32
  0
VERTEX
  8
0
  5
180
 10
-358.915
 20
-127.346
 30
0.00000
  70
    32
  0
VERTEX
  8
0
  5
181
 10
-359.955
 20
-126.908
 30
0.00000
  70
    32
  0
VERTEX
  8
0
  5
182
 10
-361.016
 20
-126.521
 30
0.00000
  70
    32
  0
VERTEX
  8
0
  5
183
 10
-362.095
 20
-126.187
 30
0.00000
  70
    32
  0
VERTEX
  8
0
  5
184
 10
-363.190
 20
-125.906
 30
0.00000
  70
    32
  0
VERTEX
  8
0
  5
185
 10
-364.296
 20
-125.680
 30
0.00000
  70
    32
  0
VERTEX
  8
0
  5
186
 10
-365.413
 20
-125.508
 30
0.00000
  70
    32
  0
VERTEX
  8
0
  5
187
 10
-366.537
 20
-125.391
 30
0.00000
  70
    32
  0
VERTEX
  8
0
  5
188
 10
-367.665
 20
-125.329
 30
0.00000
  70
    32
  0
VERTEX
  8
0
  5
189
 10
-368.795
 20
-125.323
 30
0.00000
  70
    32
  0
VERTEX
  8
0
  5
18A
 10
-369.925
 20
-125.373
 30
0.00000
  70
    32
  0
VERTEX
  8
0
  5
18B
 10
-371.050
 20
-125.477
 30
0.00000
  70
    32
  0
VERTEX
  8
0
  5
18C
 10
-372.170
 20
-125.637
 30
0.00000
  70
    32
  0
VERTEX
  8
0
  5
18D
 10
-373.280
 20
-125.851
 30
0.00000
  70
    32
  0
VERTEX
  8
0
  5
18E
 10
-374.378
 20
-126.120
 30
0.00000
  70
    32
  0
VERTEX
  8
0
  5
18F
 10
-375.462
 20
-126.442
 30
0.00000
  70
    32
  0
VERTEX
  8
0
  5
190
 10
-376.529
 20
-126.817
 30
0.00000
  70
    32
  0
VERTEX
  8
0
  5
191
 10
-377.577
 20
-127.244
 30
0.00000
  70
    32
  0
VERTEX
  8
0
  5
192
 10
-378.603
 20
-127.722
 30
0.00000
  70
    32
  0
VERTEX
  8
0
  5
193
 10
-379.603
 20
-128.249
 30
0.00000
  70
    32
  0
VERTEX
  8
0
  5
194
 10
-380.577
 20
-128.825
 30
0.00000
  70
    32
  0
VERTEX
  8
0
  5
195
 10
-381.522
 20
-129.448
 30
0.00000
  70
    32
  0
VERTEX
  8
0
  5
196
 10
-382.435
 20
-130.116
 30
0.00000
  70
    32
  0
VERTEX
  8
0
  5
197
 10
-383.315
 20
-130.829
 30
0.00000
  70
    32
  0
VERTEX
  8
0
  5
198
 10
-384.158
 20
-131.583
 30
0.00000
  70
    32
  0
VERTEX
  8
0
  5
199
 10
-384.963
 20
-132.378
 30
0.00000
  70
    32
  0
VERTEX
  8
0
  5
19A
 10
-385.729
 20
-133.211
 30
0.00000
  70
    32
  0
VERTEX
  8
0
  5
19B
 10
-386.453
 20
-134.081
 30
0.00000
  70
    32
  0
VERTEX
  8
0
  5
19C
 10
-387.133
 20
-134.986
 30
0.00000
  70
    32
  0
VERTEX
  8
0
  5
19D
 10
-387.769
 20
-135.922
 30
0.00000
  70
    32
  0
VERTEX
  8
0
  5
19E
 10
-388.357
 20
-136.888
 30
0.00000
  70
    32
  0
VERTEX
  8
0
  5
19F
 10
-388.898
 20
-137.882
 30
0.00000
  70
    32
  0
VERTEX
  8
0
  5
1A0
 10
-389.389
 20
-138.901
 30
0.00000
  70
    32
  0
VERTEX
  8
0
  5
1A1
 10
-389.830
 20
-139.943
 30
0.00000
  70
    32
  0
VERTEX
  8
0
  5
1A2
 10
-390.219
 20
-141.005
 30
0.00000
  70
    32
  0
VERTEX
  8
0
  5
1A3
 10
-390.556
 20
-142.085
 30
0.00000
  70
    32
  0
VERTEX
  8
0
  5
1A4
 10
-390.839
 20
-143.180
 30
0.00000
  70
    32
  0
VERTEX
  8
0
  5
1A5
 10
-391.068
 20
-144.288
 30
0.00000
  70
    32
  0
VERTEX
  8
0
  5
1A6
 10
-391.243
 20
-145.405
 30
0.00000
  70
    32
  0
VERTEX
  8
0
  5
1A7
 10
-391.362
 20
-146.529
 30
0.00000
  70
    32
  0
VERTEX
  8
0
  5
1A8
 10
-391.427
 20
-147.658
 30
0.00000
  70
    32
  0
VERTEX
  8
0
  5
1A9
 10
-391.436
 20
-148.788
 30
0.00000
  70
    32
  0
VERTEX
  8
0
  5
1AA
 10
-391.389
 20
-149.917
 30
0.00000
  70
    32
  0
VERTEX
  8
0
  5
1AB
 10
-391.287
 20
-151.043
 30
0.00000
  70
    32
  0
VERTEX
  8
0
  5
1AC
 10
-391.130
 20
-152.162
 30
0.00000
  70
    32
  0
VERTEX
  8
0
  5
1AD
 10
-390.918
 20
-153.271
 30
0.00000
  70
    32
  0
VERTEX
  8
0
  5
1AE
 10
-390.652
 20
-154.369
 30
0.00000
  70
    32
  0
VERTEX
  8
0
  5
1AF
 10
-390.333
 20
-155.453
 30
0.00000
  70
    32
  0
VERTEX
  8
0
  5
1B0
 10
-389.960
 20
-156.519
 30
0.00000
  70
    32
  0
VERTEX
  8
0
  5
1B1
 10
-389.536
 20
-157.566
 30
0.00000
  70
    32
  0
VERTEX
  8
0
  5
1B2
 10
-389.061
 20
-158.590
 30
0.00000
  70
    32
  0
VERTEX
  8
0
  5
1B3
 10
-388.536
 20
-159.590
 30
0.00000
  70
    32
  0
VERTEX
  8
0
  5
1B4
 10
-387.963
 20
-160.563
 30
0.00000
  70
    32
  0
VERTEX
  8
0
  5
1B5
 10
-387.342
 20
-161.506
 30
0.00000
  70
    32
  0
VERTEX
  8
0
  5
1B6
 10
-386.676
 20
-162.417
 30
0.00000
  70
    32
  0
VERTEX
  8
0
  5
1B7
 10
-385.966
 20
-163.295
 30
0.00000
  70
    32
  0
VERTEX
  8
0
  5
1B8
 10
-385.214
 20
-164.137
 30
0.00000
  70
    32
  0
VERTEX
  8
0
  5
1B9
 10
-384.421
 20
-164.940
 30
0.00000
  70
    32
  0
SEQEND
  8
0
  5
1BA
  0
POLYLINE
  5
DC
  8
0
 10
-384.4207716288786969
 20
178.20639890234429
 30
0.0
 66
     1
 70
     8
  0
VERTEX
  8
0
  5
1BB
 10
-384.421
 20
178.206
 30
0.00000
  70
    32
  0
VERTEX
  8
0
  5
1BC
 10
-385.214
 20
177.403
 30
0.00000
  70
    32
  0
VERTEX
  8
0
  5
1BD
 10
-385.966
 20
176.561
 30
0.00000
  70
    32
  0
VERTEX
  8
0
  5
1BE
 10
-386.676
 20
175.684
 30
0.00000
  70
    32
  0
VERTEX
  8
0
  5
1BF
 10
-387.342
 20
174.772
 30
0.00000
  70
    32
  0
VERTEX
  8
0
  5
1C0
 10
-387.963
 20
173.829
 30
0.00000
  70
    32
  0
VERTEX
  8
0
  5
1C1
 10
-388.536
 20
172.856
 30
0.00000
  70
    32
  0
VERTEX
  8
0
  5
1C2
 10
-389.061
 20
171.856
 30
0.00000
  70
    32
  0
VERTEX
  8
0
  5
1C3
 10
-389.536
 20
170.832
 30
0.00000
  70
    32
  0
VERTEX
  8
0
  5
1C4
 10
-389.960
 20
169.785
 30
0.00000
  70
    32
  0
VERTEX
  8
0
  5
1C5
 10
-390.333
 20
168.719
 30
0.00000
  70
    32
  0
VERTEX
  8
0
  5
1C6
 10
-390.652
 20
167.636
 30
0.00000
  70
    32
  0
VERTEX
  8
0
  5
1C7
 10
-390.918
 20
166.538
 30
0.00000
  70
    32
  0
VERTEX
  8
0
  5
1C8
 10
-391.130
 20
165.428
 30
0.00000
  70
    32
  0
VERTEX
  8
0
  5
1C9
 10
-391.287
 20
164.309
 30
0.00000
  70
    32
  0
VERTEX
  8
0
  5
1CA
 10
-391.389
 20
163.183
 30
0.00000
  70
    32
  0
VERTEX
  8
0
  5
1CB
 10
-391.436
 20
162.054
 30
0.00000
  70
    32
  0
VERTEX
  8
0
  5
1CC
 10
-391.427
 20
160.924
 30
0.00000
  70
    32
  0
VERTEX
  8
0
  5
1CD
 10
-391.362
 20
159.795
 30
0.00000
  70
    32
  0
VERTEX
  8
0
  5
1CE
 10
-391.243
 20
158.671
 30
0.00000
  70
    32
  0
VERTEX
  8
0
  5
1CF
 10
-391.068
 20
157.554
 30
0.00000
  70
    32
  0
VERTEX
  8
0
  5
1D0
 10
-390.839
 20
156.446
 30
0.00000
  70
    32
  0
VERTEX
  8
0
  5
1D1
 10
-390.556
 20
155.351
 30
0.00000
  70
    32
  0
VERTEX
  8
0
  5
1D2
 10
-390.219
 20
154.272
 30
0.00000
  70
    32
  0
VERTEX
  8
0
  5
1D3
 10
-389.830
 20
153.209
 30
0.00000
  70
    32
  0
VERTEX
  8
0
  5
1D4
 10
-389.389
 20
152.168
 30
0.00000
  70
    32
  0
VERTEX
  8
0
  5
1D5
 10
-388.898
 20
151.148
 30
0.00000
  70
    32
  0
VERTEX
  8
0
  5
1D6
 10
-388.357
 20
150.154
 30
0.00000
  70
    32
  0
VERTEX
  8
0
  5
1D7
 10
-387.769
 20
149.188
 30
0.00000
  70
    32
  0
VERTEX
  8
0
  5
1D8
 10
-387.133
 20
148.252
 30
0.00000
  70
    32
  0
VERTEX
  8
0
  5
1D9
 10
-386.453
 20
147.347
 30
0.00000
  70
    32
  0
VERTEX
  8
0
  5
1DA
 10
-385.729
 20
146.478
 30
0.00000
  70
    32
  0
VERTEX
  8
0
  5
1DB
 10
-384.963
 20
145.644
 30
0.00000
  70
    32
  0
VERTEX
  8
0
  5
1DC
 10
-384.158
 20
144.849
 30
0.00000
  70
    32
  0
VERTEX
  8
0
  5
1DD
 10
-383.315
 20
144.095
 30
0.00000
  70
    32
  0
VERTEX
  8
0
  5
1DE
 10
-382.435
 20
143.383
 30
0.00000
  70
    32
  0
VERTEX
  8
0
  5
1DF
 10
-381.522
 20
142.714
 30
0.00000
  70
    32
  0
VERTEX
  8
0
  5
1E0
 10
-380.577
 20
142.091
 30
0.00000
  70
    32
  0
VERTEX
  8
0
  5
1E1
 10
-379.603
 20
141.516
 30
0.00000
  70
    32
  0
VERTEX
  8
0
  5
1E2
 10
-378.603
 20
140.988
 30
0.00000
  70
    32
  0
VERTEX
  8
0
  5
1E3
 10
-377.577
 20
140.510
 30
0.00000
  70
    32
  0
VERTEX
  8
0
  5
1E4
 10
-376.529
 20
140.084
 30
0.00000
  70
    32
  0
VERTEX
  8
0
  5
1E5
 10
-375.462
 20
139.709
 30
0.00000
  70
    32
  0
VERTEX
  8
0
  5
1E6
 10
-374.378
 20
139.386
 30
0.00000
  70
    32
  0
VERTEX
  8
0
  5
1E7
 10
-373.280
 20
139.118
 30
0.00000
  70
    32
  0
VERTEX
  8
0
  5
1E8
 10
-372.170
 20
138.903
 30
0.00000
  70
    32
  0
VERTEX
  8
0
  5
1E9
 10
-371.050
 20
138.743
 30
0.00000
  70
    32
  0
VERTEX
  8
0
  5
1EA
 10
-369.925
 20
138.639
 30
0.00000
  70
    32
  0
VERTEX
  8
0
  5
1EB
 10
-368.795
 20
138.589
 30
0.00000
  70
    32
  0
VERTEX
  8
0
  5
1EC
 10
-367.665
 20
138.596
 30
0.00000
  70
    32
  0
VERTEX
  8
0
  5
1ED
 10
-366.537
 20
138.657
 30
0.00000
  70
    32
  0
VERTEX
  8
0
  5
1EE
 10
-365.413
 20
138.774
 30
0.00000
  70
    32
  0
VERTEX
  8
0
  5
1EF
 10
-364.296
 20
138.946
 30
0.00000
  70
    32
  0
VERTEX
  8
0
  5
1F0
 10
-363.190
 20
139.173
 30
0.00000
  70
    32
  0
VERTEX
  8
0
  5
1F1
 10
-362.095
 20
139.453
 30
0.00000
  70
    32
  0
VERTEX
  8
0
  5
1F2
 10
-361.016
 20
139.787
 30
0.00000
  70
    32
  0
VERTEX
  8
0
  5
1F3
 10
-359.955
 20
140.174
 30
0.00000
  70
    32
  0
VERTEX
  8
0
  5
1F4
 10
-358.915
 20
140.612
 30
0.00000
  70
    32
  0
VERTEX
  8
0
  5
1F5
 10
-357.897
 20
141.101
 30
0.00000
  70
    32
  0
VERTEX
  8
0
  5
1F6
 10
-356.904
 20
141.639
 30
0.00000
  70
    32
  0
VERTEX
  8
0
  5
1F7
 10
-355.939
 20
142.225
 30
0.00000
  70
    32
  0
VERTEX
  8
0
  5
1F8
 10
-355.005
 20
142.859
 30
0.00000
  70
    32
  0
VERTEX
  8
0
  5
1F9
 10
-354.102
 20
143.537
 30
0.00000
  70
    32
  0
VERTEX
  8
0
  5
1FA
 10
-353.234
 20
144.259
 30
0.00000
  70
    32
  0
VERTEX
  8
0
  5
1FB
 10
-352.403
 20
145.022
 30
0.00000
  70
    32
  0
VERTEX
  8
0
  5
1FC
 10
-351.610
 20
145.826
 30
0.00000
  70
    32
  0
VERTEX
  8
0
  5
1FD
 10
-350.857
 20
146.667
 30
0.00000
  70
    32
  0
VERTEX
  8
0
  5
1FE
 10
-350.147
 20
147.545
 30
0.00000
  70
    32
  0
VERTEX
  8
0
  5
1FF
 10
-349.481
 20
148.457
 30
0.00000
  70
    32
  0
VERTEX
  8
0
  5
200
 10
-348.861
 20
149.400
 30
0.00000
  70
    32
  0
VERTEX
  8
0
  5
201
 10
-348.287
 20
150.373
 30
0.00000
  70
    32
  0
VERTEX
  8
0
  5
202
 10
-347.762
 20
151.372
 30
0.00000
  70
    32
  0
VERTEX
  8
0
  5
203
 10
-347.287
 20
152.397
 30
0.00000
  70
    32
  0
VERTEX
  8
0
  5
204
 10
-346.863
 20
153.443
 30
0.00000
  70
    32
  0
VERTEX
  8
0
  5
205
 10
-346.491
 20
154.510
 30
0.00000
  70
    32
  0
VERTEX
  8
0
  5
206
 10
-346.171
 20
155.593
 30
0.00000
  70
    32
  0
VERTEX
  8
0
  5
207
 10
-345.905
 20
156.691
 30
0.00000
  70
    32
  0
VERTEX
  8
0
  5
208
 10
-345.693
 20
157.801
 30
0.00000
  70
    32
  0
VERTEX
  8
0
  5
209
 10
-345.536
 20
158.920
 30
0.00000
  70
    32
  0
VERTEX
  8
0
  5
20A
 10
-345.434
 20
160.045
 30
0.00000
  70
    32
  0
VERTEX
  8
0
  5
20B
 10
-345.388
 20
161.174
 30
0.00000
  70
    32
  0
VERTEX
  8
0
  5
20C
 10
-345.397
 20
162.305
 30
0.00000
  70
    32
  0
VERTEX
  8
0
  5
20D
 10
-345.461
 20
163.433
 30
0.00000
  70
    32
  0
VERTEX
  8
0
  5
20E
 10
-345.581
 20
164.558
 30
0.00000
  70
    32
  0
VERTEX
  8
0
  5
20F
 10
-345.755
 20
165.675
 30
0.00000
  70
    32
  0
VERTEX
  8
0
  5
210
 10
-345.985
 20
166.782
 30
0.00000
  70
    32
  0
VERTEX
  8
0
  5
211
 10
-346.268
 20
167.877
 30
0.00000
  70
    32
  0
VERTEX
  8
0
  5
212
 10
-346.604
 20
168.957
 30
0.00000
  70
    32
  0
VERTEX
  8
0
  5
213
 10
-346.994
 20
170.019
 30
0.00000
  70
    32
  0
VERTEX
  8
0
  5
214
 10
-347.434
 20
171.061
 30
0.00000
  70
    32
  0
VERTEX
  8
0
  5
215
 10
-347.926
 20
172.080
 30
0.00000
  70
    32
  0
VERTEX
  8
0
  5
216
 10
-348.466
 20
173.074
 30
0.00000
  70
    32
  0
VERTEX
  8
0
  5
217
 10
-349.055
 20
174.041
 30
0.00000
  70
    32
  0
VERTEX
  8
0
  5
218
 10
-349.690
 20
174.977
 30
0.00000
  70
    32
  0
VERTEX
  8
0
  5
219
 10
-350.371
 20
175.881
 30
0.00000
  70
    32
  0
VERTEX
  8
0
  5
21A
 10
-351.094
 20
176.751
 30
0.00000
  70
    32
  0
VERTEX
  8
0
  5
21B
 10
-351.860
 20
177.584
 30
0.00000
  70
    32
  0
VERTEX
  8
0
  5
21C
 10
-352.666
 20
178.379
 30
0.00000
  70
    32
  0
VERTEX
  8
0
  5
21D
 10
-353.509
 20
179.134
 30
0.00000
  70
    32
  0
VERTEX
  8
0
  5
21E
 10
-354.388
 20
179.846
 30
0.00000
  70
    32
  0
VERTEX
  8
0
  5
21F
 10
-355.301
 20
180.514
 30
0.00000
  70
    32
  0
VERTEX
  8
0
  5
220
 10
-356.246
 20
181.137
 30
0.00000
  70
    32
  0
VERTEX
  8
0
  5
221
 10
-357.220
 20
181.713
 30
0.00000
  70
    32
  0
VERTEX
  8
0
  5
222
 10
-358.221
 20
182.241
 30
0.00000
  70
    32
  0
VERTEX
  8
0
  5
223
 10
-359.246
 20
182.718
 30
0.00000
  70
    32
  0
VERTEX
  8
0
  5
224
 10
-360.294
 20
183.145
 30
0.00000
  70
    32
  0
VERTEX
  8
0
  5
225
 10
-361.361
 20
183.520
 30
0.00000
  70
    32
  0
VERTEX
  8
0
  5
226
 10
-362.445
 20
183.842
 30
0.00000
  70
    32
  0
VERTEX
  8
0
  5
227
 10
-363.544
 20
184.111
 30
0.00000
  70
    32
  0
VERTEX
  8
0
  5
228
 10
-364.654
 20
184.325
 30
0.00000
  70
    32
  0
VERTEX
  8
0
  5
229
 10
-365.773
 20
184.485
 30
0.00000
  70
    32
  0
VERTEX
  8
0
  5
22A
 10
-366.899
 20
184.590
 30
0.00000
  70
    32
  0
VERTEX
  8
0
  5
22B
 10
-368.028
 20
184.639
 30
0.00000
  70
    32
  0
VERTEX
  8
0
  5
22C
 10
-369.158
 20
184.633
 30
0.00000
  70
    32
  0
VERTEX
  8
0
  5
22D
 10
-370.287
 20
184.571
 30
0.00000
  70
    32
  0
VERTEX
  8
0
  5
22E
 10
-371.411
 20
184.455
 30
0.00000
  70
    32
  0
VERTEX
  8
0
  5
22F
 10
-372.527
 20
184.283
 30
0.00000
  70
    32
  0
VERTEX
  8
0
  5
230
 10
-373.634
 20
184.056
 30
0.00000
  70
    32
  0
VERTEX
  8
0
  5
231
 10
-374.728
 20
183.775
 30
0.00000
  70
    32
  0
VERTEX
  8
0
  5
232
 10
-375.807
 20
183.441
 30
0.00000
  70
    32
  0
VERTEX
  8
0
  5
233
 10
-376.868
 20
183.055
 30
0.00000
  70
    32
  0
VERTEX
  8
0
  5
234
 10
-377.909
 20
182.617
 30
0.00000
  70
    32
  0
VERTEX
  8
0
  5
235
 10
-378.927
 20
182.128
 30
0.00000
  70
    32
  0
VERTEX
  8
0
  5
236
 10
-379.919
 20
181.590
 30
0.00000
  70
    32
  0
VERTEX
  8
0
  5
237
 10
-380.884
 20
181.003
 30
0.00000
  70
    32
  0
VERTEX
  8
0
  5
238
 10
-381.819
 20
180.370
 30
0.00000
  70
    32
  0
VERTEX
  8
0
  5
239
 10
-382.721
 20
179.692
 30
0.00000
  70
    32
  0
VERTEX
  8
0
  5
23A
 10
-383.589
 20
178.970
 30
0.00000
  70
    32
  0
VERTEX
  8
0
  5
23B
 10
-384.421
 20
178.206
 30
0.00000
  70
    32
  0
SEQEND
  8
0
  5
23C
  0
POLYLINE
  5
DD
  8
0
 10
112.4542610707707553
 20
178.20639890234429
 30
0.0
 66
     1
 70
     8
  0
VERTEX
  8
0
  5
23D
 10
112.454
 20
178.206
 30
0.00000
  70
    32
  0
VERTEX
  8
0
  5
23E
 10
111.623
 20
178.970
 30
0.00000
  70
    32
  0
VERTEX
  8
0
  5
23F
 10
110.755
 20
179.692
 30
0.00000
  70
    32
  0
VERTEX
  8
0
  5
240
 10
109.852
 20
180.370
 30
0.00000
  70
    32
  0
VERTEX
  8
0
  5
241
 10
108.918
 20
181.003
 30
0.00000
  70
    32
  0
VERTEX
  8
0
  5
242
 10
107.953
 20
181.590
 30
0.00000
  70
    32
  0
VERTEX
  8
0
  5
243
 10
106.960
 20
182.128
 30
0.00000
  70
    32
  0
VERTEX
  8
0
  5
244
 10
105.942
 20
182.617
 30
0.00000
  70
    32
  0
VERTEX
  8
0
  5
245
 10
104.902
 20
183.055
 30
0.00000
  70
    32
  0
VERTEX
  8
0
  5
246
 10
103.840
 20
183.441
 30
0.00000
  70
    32
  0
VERTEX
  8
0
  5
247
 10
102.762
 20
183.775
 30
0.00000
  70
    32
  0
VERTEX
  8
0
  5
248
 10
101.667
 20
184.056
 30
0.00000
  70
    32
  0
VERTEX
  8
0
  5
249
 10
100.561
 20
184.283
 30
0.00000
  70
    32
  0
VERTEX
  8
0
  5
24A
 10
99.4440
 20
184.455
 30
0.00000
  70
    32
  0
VERTEX
  8
0
  5
24B
 10
98.3201
 20
184.571
 30
0.00000
  70
    32
  0
VERTEX
  8
0
  5
24C
 10
97.1917
 20
184.633
 30
0.00000
  70
    32
  0
VERTEX
  8
0
  5
24D
 10
96.0615
 20
184.639
 30
0.00000
  70
    32
  0
VERTEX
  8
0
  5
24E
 10
94.9323
 20
184.590
 30
0.00000
  70
    32
  0
VERTEX
  8
0
  5
24F
 10
93.8066
 20
184.485
 30
0.00000
  70
    32
  0
VERTEX
  8
0
  5
250
 10
92.6874
 20
184.325
 30
0.00000
  70
    32
  0
VERTEX
  8
0
  5
251
 10
91.5772
 20
184.111
 30
0.00000
  70
    32
  0
VERTEX
  8
0
  5
252
 10
90.4787
 20
183.842
 30
0.00000
  70
    32
  0
VERTEX
  8
0
  5
253
 10
89.3946
 20
183.520
 30
0.00000
  70
    32
  0
VERTEX
  8
0
  5
254
 10
88.3274
 20
183.145
 30
0.00000
  70
    32
  0
VERTEX
  8
0
  5
255
 10
87.2799
 20
182.718
 30
0.00000
  70
    32
  0
VERTEX
  8
0
  5
256
 10
86.2544
 20
182.241
 30
0.00000
  70
    32
  0
VERTEX
  8
0
  5
257
 10
85.2534
 20
181.713
 30
0.00000
  70
    32
  0
VERTEX
  8
0
  5
258
 10
84.2795
 20
181.137
 30
0.00000
  70
    32
  0
VERTEX
  8
0
  5
259
 10
83.3348
 20
180.514
 30
0.00000
  70
    32
  0
VERTEX
  8
0
  5
25A
 10
82.4217
 20
179.846
 30
0.00000
  70
    32
  0
VERTEX
  8
0
  5
25B
 10
81.5424
 20
179.134
 30
0.00000
  70
    32
  0
VERTEX
  8
0
  5
25C
 10
80.6990
 20
178.379
 30
0.00000
  70
    32
  0
VERTEX
  8
0
  5
25D
 10
79.8936
 20
177.584
 30
0.00000
  70
    32
  0
VERTEX
  8
0
  5
25E
 10
79.1280
 20
176.751
 30
0.00000
  70
    32
  0
VERTEX
  8
0
  5
25F
 10
78.4041
 20
175.881
 30
0.00000
  70
    32
  0
VERTEX
  8
0
  5
260
 10
77.7237
 20
174.977
 30
0.00000
  70
    32
  0
VERTEX
  8
0
  5
261
 10
77.0884
 20
174.041
 30
0.00000
  70
    32
  0
VERTEX
  8
0
  5
262
 10
76.4997
 20
173.074
 30
0.00000
  70
    32
  0
VERTEX
  8
0
  5
263
 10
75.9591
 20
172.080
 30
0.00000
  70
    32
  0
VERTEX
  8
0
  5
264
 10
75.4678
 20
171.061
 30
0.00000
  70
    32
  0
VERTEX
  8
0
  5
265
 10
75.0271
 20
170.019
 30
0.00000
  70
    32
  0
VERTEX
  8
0
  5
266
 10
74.6379
 20
168.957
 30
0.00000
  70
    32
  0
VERTEX
  8
0
  5
267
 10
74.3013
 20
167.877
 30
0.00000
  70
    32
  0
VERTEX
  8
0
  5
268
 10
74.0181
 20
166.782
 30
0.00000
  70
    32
  0
VERTEX
  8
0
  5
269
 10
73.7889
 20
165.675
 30
0.00000
  70
    32
  0
VERTEX
  8
0
  5
26A
 10
73.6142
 20
164.558
 30
0.00000
  70
    32
  0
VERTEX
  8
0
  5
26B
 10
73.4946
 20
163.433
 30
0.00000
  70
    32
  0
VERTEX
  8
0
  5
26C
 10
73.4302
 20
162.305
 30
0.00000
  70
    32
  0
VERTEX
  8
0
  5
26D
 10
73.4213
 20
161.174
 30
0.00000
  70
    32
  0
VERTEX
  8
0
  5
26E
 10
73.4679
 20
160.045
 30
0.00000
  70
    32
  0
VERTEX
  8
0
  5
26F
 10
73.5698
 20
158.920
 30
0.00000
  70
    32
  0
VERTEX
  8
0
  5
270
 10
73.7268
 20
157.801
 30
0.00000
  70
    32
  0
VERTEX
  8
0
  5
271
 10
73.9386
 20
156.691
 30
0.00000
  70
    32
  0
VERTEX
  8
0
  5
272
 10
74.2045
 20
155.593
 30
0.00000
  70
    32
  0
VERTEX
  8
0
  5
273
 10
74.5241
 20
154.510
 30
0.00000
  70
    32
  0
VERTEX
  8
0
  5
274
 10
74.8964
 20
153.443
 30
0.00000
  70
    32
  0
VERTEX
  8
0
  5
275
 10
75.3207
 20
152.397
 30
0.00000
  70
    32
  0
VERTEX
  8
0
  5
276
 10
75.7959
 20
151.372
 30
0.00000
  70
    32
  0
VERTEX
  8
0
  5
277
 10
76.3208
 20
150.373
 30
0.00000
  70
    32
  0
VERTEX
  8
0
  5
278
 10
76.8942
 20
149.400
 30
0.00000
  70
    32
  0
VERTEX
  8
0
  5
279
 10
77.5147
 20
148.457
 30
0.00000
  70
    32
  0
VERTEX
  8
0
  5
27A
 10
78.1808
 20
147.545
 30
0.00000
  70
    32
  0
VERTEX
  8
0
  5
27B
 10
78.8909
 20
146.667
 30
0.00000
  70
    32
  0
VERTEX
  8
0
  5
27C
 10
79.6433
 20
145.826
 30
0.00000
  70
    32
  0
VERTEX
  8
0
  5
27D
 10
80.4362
 20
145.022
 30
0.00000
  70
    32
  0
VERTEX
  8
0
  5
27E
 10
81.2676
 20
144.259
 30
0.00000
  70
    32
  0
VERTEX
  8
0
  5
27F
 10
82.1356
 20
143.537
 30
0.00000
  70
    32
  0
VERTEX
  8
0
  5
280
 10
83.0381
 20
142.859
 30
0.00000
  70
    32
  0
VERTEX
  8
0
  5
281
 10
83.9728
 20
142.225
 30
0.00000
  70
    32
  0
VERTEX
  8
0
  5
282
 10
84.9376
 20
141.639
 30
0.00000
  70
    32
  0
VERTEX
  8
0
  5
283
 10
85.9302
 20
141.101
 30
0.00000
  70
    32
  0
VERTEX
  8
0
  5
284
 10
86.9481
 20
140.612
 30
0.00000
  70
    32
  0
VERTEX
  8
0
  5
285
 10
87.9888
 20
140.174
 30
0.00000
  70
    32
  0
VERTEX
  8
0
  5
286
 10
89.0499
 20
139.787
 30
0.00000
  70
    32
  0
VERTEX
  8
0
  5
287
 10
90.1289
 20
139.453
 30
0.00000
  70
    32
  0
VERTEX
  8
0
  5
288
 10
91.2230
 20
139.173
 30
0.00000
  70
    32
  0
VERTEX
  8
0
  5
289
 10
92.3298
 20
138.946
 30
0.00000
  70
    32
  0
VERTEX
  8
0
  5
28A
 10
93.4464
 20
138.774
 30
0.00000
  70
    32
  0
VERTEX
  8
0
  5
28B
 10
94.5703
 20
138.657
 30
0.00000
  70
    32
  0
VERTEX
  8
0
  5
28C
 10
95.6987
 20
138.596
 30
0.00000
  70
    32
  0
VERTEX
  8
0
  5
28D
 10
96.8289
 20
138.589
 30
0.00000
  70
    32
  0
VERTEX
  8
0
  5
28E
 10
97.9582
 20
138.639
 30
0.00000
  70
    32
  0
VERTEX
  8
0
  5
28F
 10
99.0838
 20
138.743
 30
0.00000
  70
    32
  0
VERTEX
  8
0
  5
290
 10
100.203
 20
138.903
 30
0.00000
  70
    32
  0
VERTEX
  8
0
  5
291
 10
101.313
 20
139.118
 30
0.00000
  70
    32
  0
VERTEX
  8
0
  5
292
 10
102.412
 20
139.386
 30
0.00000
  70
    32
  0
VERTEX
  8
0
  5
293
 10
103.496
 20
139.709
 30
0.00000
  70
    32
  0
VERTEX
  8
0
  5
294
 10
104.563
 20
140.084
 30
0.00000
  70
    32
  0
VERTEX
  8
0
  5
295
 10
105.611
 20
140.510
 30
0.00000
  70
    32
  0
VERTEX
  8
0
  5
296
 10
106.636
 20
140.988
 30
0.00000
  70
    32
  0
VERTEX
  8
0
  5
297
 10
107.637
 20
141.516
 30
0.00000
  70
    32
  0
VERTEX
  8
0
  5
298
 10
108.611
 20
142.091
 30
0.00000
  70
    32
  0
VERTEX
  8
0
  5
299
 10
109.556
 20
142.714
 30
0.00000
  70
    32
  0
VERTEX
  8
0
  5
29A
 10
110.469
 20
143.383
 30
0.00000
  70
    32
  0
VERTEX
  8
0
  5
29B
 10
111.348
 20
144.095
 30
0.00000
  70
    32
  0
VERTEX
  8
0
  5
29C
 10
112.191
 20
144.849
 30
0.00000
  70
    32
  0
VERTEX
  8
0
  5
29D
 10
112.997
 20
145.644
 30
0.00000
  70
    32
  0
VERTEX
  8
0
  5
29E
 10
113.762
 20
146.478
 30
0.00000
  70
    32
  0
VERTEX
  8
0
  5
29F
 10
114.486
 20
147.347
 30
0.00000
  70
    32
  0
VERTEX
  8
0
  5
2A0
 10
115.167
 20
148.252
 30
0.00000
  70
    32
  0
VERTEX
  8
0
  5
2A1
 10
115.802
 20
149.188
 30
0.00000
  70
    32
  0
VERTEX
  8
0
  5
2A2
 10
116.391
 20
150.154
 30
0.00000
  70
    32
  0
VERTEX
  8
0
  5
2A3
 10
116.931
 20
151.148
 30
0.00000
  70
    32
  0
VERTEX
  8
0
  5
2A4
 10
117.423
 20
152.168
 30
0.00000
  70
    32
  0
VERTEX
  8
0
  5
2A5
 10
117.863
 20
153.209
 30
0.00000
  70
    32
  0
VERTEX
  8
0
  5
2A6
 10
118.252
 20
154.272
 30
0.00000
  70
    32
  0
VERTEX
  8
0
  5
2A7
 10
118.589
 20
155.351
 30
0.00000
  70
    32
  0
VERTEX
  8
0
  5
2A8
 10
118.872
 20
156.446
 30
0.00000
  70
    32
  0
VERTEX
  8
0
  5
2A9
 10
119.102
 20
157.554
 30
0.00000
  70
    32
  0
VERTEX
  8
0
  5
2AA
 10
119.276
 20
158.671
 30
0.00000
  70
    32
  0
VERTEX
  8
0
  5
2AB
 10
119.396
 20
159.795
 30
0.00000
  70
    32
  0
VERTEX
  8
0
  5
2AC
 10
119.460
 20
160.924
 30
0.00000
  70
    32
  0
VERTEX
  8
0
  5
2AD
 10
119.469
 20
162.054
 30
0.00000
  70
    32
  0
VERTEX
  8
0
  5
2AE
 10
119.423
 20
163.183
 30
0.00000
  70
    32
  0
VERTEX
  8
0
  5
2AF
 10
119.321
 20
164.309
 30
0.00000
  70
    32
  0
VERTEX
  8
0
  5
2B0
 10
119.164
 20
165.428
 30
0.00000
  70
    32
  0
VERTEX
  8
0
  5
2B1
 10
118.952
 20
166.538
 30
0.00000
  70
    32
  0
VERTEX
  8
0
  5
2B2
 10
118.686
 20
167.636
 30
0.00000
  70
    32
  0
VERTEX
  8
0
  5
2B3
 10
118.366
 20
168.719
 30
0.00000
  70
    32
  0
VERTEX
  8
0
  5
2B4
 10
117.994
 20
169.785
 30
0.00000
  70
    32
  0
VERTEX
  8
0
  5
2B5
 10
117.570
 20
170.832
 30
0.00000
  70
    32
  0
VERTEX
  8
0
  5
2B6
 10
117.095
 20
171.856
 30
0.00000
  70
    32
  0
VERTEX
  8
0
  5
2B7
 10
116.570
 20
172.856
 30
0.00000
  70
    32
  0
VERTEX
  8
0
  5
2B8
 10
115.996
 20
173.829
 30
0.00000
  70
    32
  0
VERTEX
  8
0
  5
2B9
 10
115.376
 20
174.772
 30
0.00000
  70
    32
  0
VERTEX
  8
0
  5
2BA
 10
114.710
 20
175.684
 30
0.00000
  70
    32
  0
VERTEX
  8
0
  5
2BB
 10
114.000
 20
176.561
 30
0.00000
  70
    32
  0
VERTEX
  8
0
  5
2BC
 10
113.247
 20
177.403
 30
0.00000
  70
    32
  0
VERTEX
  8
0
  5
2BD
 10
112.454
 20
178.206
 30
0.00000
  70
    32
  0
SEQEND
  8
0
  5
2BE
  0
POLYLINE
  5
DE
  8
0
 10
112.4542610707708263
 20
-164.9402255037655891
 30
0.0
 66
     1
 70
     8
  0
VERTEX
  8
0
  5
2BF
 10
112.454
 20
-164.940
 30
0.00000
  70
    32
  0
VERTEX
  8
0
  5
2C0
 10
113.247
 20
-164.137
 30
0.00000
  70
    32
  0
VERTEX
  8
0
  5
2C1
 10
114.000
 20
-163.295
 30
0.00000
  70
    32
  0
VERTEX
  8
0
  5
2C2
 10
114.710
 20
-162.417
 30
0.00000
  70
    32
  0
VERTEX
  8
0
  5
2C3
 10
115.376
 20
-161.506
 30
0.00000
  70
    32
  0
VERTEX
  8
0
  5
2C4
 10
115.996
 20
-160.563
 30
0.00000
  70
    32
  0
VERTEX
  8
0
  5
2C5
 10
116.570
 20
-159.590
 30
0.00000
  70
    32
  0
VERTEX
  8
0
  5
2C6
 10
117.095
 20
-158.590
 30
0.00000
  70
    32
  0
VERTEX
  8
0
  5
2C7
 10
117.570
 20
-157.566
 30
0.00000
  70
    32
  0
VERTEX
  8
0
  5
2C8
 10
117.994
 20
-156.519
 30
0.00000
  70
    32
  0
VERTEX
  8
0
  5
2C9
 10
118.366
 20
-155.453
 30
0.00000
  70
    32
  0
VERTEX
  8
0
  5
2CA
 10
118.686
 20
-154.369
 30
0.00000
  70
    32
  0
VERTEX
  8
0
  5
2CB
 10
118.952
 20
-153.271
 30
0.00000
  70
    32
  0
VERTEX
  8
0
  5
2CC
 10
119.164
 20
-152.162
 30
0.00000
  70
    32
  0
VERTEX
  8
0
  5
2CD
 10
119.321
 20
-151.043
 30
0.00000
  70
    32
  0
VERTEX
  8
0
  5
2CE
 10
119.423
 20
-149.917
 30
0.00000
  70
    32
  0
VERTEX
  8
0
  5
2CF
 10
119.469
 20
-148.788
 30
0.00000
  70
    32
  0
VERTEX
  8
0
  5
2D0
 10
119.460
 20
-147.658
 30
0.00000
  70
    32
  0
VERTEX
  8
0
  5
2D1
 10
119.396
 20
-146.529
 30
0.00000
  70
    32
  0
VERTEX
  8
0
  5
2D2
 10
119.276
 20
-145.405
 30
0.00000
  70
    32
  0
VERTEX
  8
0
  5
2D3
 10
119.102
 20
-144.288
 30
0.00000
  70
    32
  0
VERTEX
  8
0
  5
2D4
 10
118.872
 20
-143.180
 30
0.00000
  70
    32
  0
VERTEX
  8
0
  5
2D5
 10
118.589
 20
-142.085
 30
0.00000
  70
    32
  0
VERTEX
  8
0
  5
2D6
 10
118.252
 20
-141.005
 30
0.00000
  70
    32
  0
VERTEX
  8
0
  5
2D7
 10
117.863
 20
-139.943
 30
0.00000
  70
    32
  0
VERTEX
  8
0
  5
2D8
 10
117.423
 20
-138.901
 30
0.00000
  70
    32
  0
VERTEX
  8
0
  5
2D9
 10
116.931
 20
-137.882
 30
0.00000
  70
    32
  0
VERTEX
  8
0
  5
2DA
 10
116.391
 20
-136.888
 30
0.00000
  70
    32
  0
VERTEX
  8
0
  5
2DB
 10
115.802
 20
-135.922
 30
0.00000
  70
    32
  0
VERTEX
  8
0
  5
2DC
 10
115.167
 20
-134.986
 30
0.00000
  70
    32
  0
VERTEX
  8
0
  5
2DD
 10
114.486
 20
-134.081
 30
0.00000
  70
    32
  0
VERTEX
  8
0
  5
2DE
 10
113.762
 20
-133.211
 30
0.00000
  70
    32
  0
VERTEX
  8
0
  5
2DF
 10
112.997
 20
-132.378
 30
0.00000
  70
    32
  0
VERTEX
  8
0
  5
2E0
 10
112.191
 20
-131.583
 30
0.00000
  70
    32
  0
VERTEX
  8
0
  5
2E1
 10
111.348
 20
-130.829
 30
0.00000
  70
    32
  0
VERTEX
  8
0
  5
2E2
 10
110.469
 20
-130.116
 30
0.00000
  70
    32
  0
VERTEX
  8
0
  5
2E3
 10
109.556
 20
-129.448
 30
0.00000
  70
    32
  0
VERTEX
  8
0
  5
2E4
 10
108.611
 20
-128.825
 30
0.00000
  70
    32
  0
VERTEX
  8
0
  5
2E5
 10
107.637
 20
-128.249
 30
0.00000
  70
    32
  0
VERTEX
  8
0
  5
2E6
 10
106.636
 20
-127.722
 30
0.00000
  70
    32
  0
VERTEX
  8
0
  5
2E7
 10
105.611
 20
-127.244
 30
0.00000
  70
    32
  0
VERTEX
  8
0
  5
2E8
 10
104.563
 20
-126.817
 30
0.00000
  70
    32
  0
VERTEX
  8
0
  5
2E9
 10
103.496
 20
-126.442
 30
0.00000
  70
    32
  0
VERTEX
  8
0
  5
2EA
 10
102.412
 20
-126.120
 30
0.00000
  70
    32
  0
VERTEX
  8
0
  5
2EB
 10
101.313
 20
-125.851
 30
0.00000
  70
    32
  0
VERTEX
  8
0
  5
2EC
 10
100.203
 20
-125.637
 30
0.00000
  70
    32
  0
VERTEX
  8
0
  5
2ED
 10
99.0838
 20
-125.477
 30
0.00000
  70
    32
  0
VERTEX
  8
0
  5
2EE
 10
97.9582
 20
-125.373
 30
0.00000
  70
    32
  0
VERTEX
  8
0
  5
2EF
 10
96.8289
 20
-125.323
 30
0.00000
  70
    32
  0
VERTEX
  8
0
  5
2F0
 10
95.6987
 20
-125.329
 30
0.00000
  70
    32
  0
VERTEX
  8
0
  5
2F1
 10
94.5703
 20
-125.391
 30
0.00000
  70
    32
  0
VERTEX
  8
0
  5
2F2
 10
93.4464
 20
-125.508
 30
0.00000
  70
    32
  0
VERTEX
  8
0
  5
2F3
 10
92.3298
 20
-125.680
 30
0.00000
  70
    32
  0
VERTEX
  8
0
  5
2F4
 10
91.2230
 20
-125.906
 30
0.00000
  70
    32
  0
VERTEX
  8
0
  5
2F5
 10
90.1289
 20
-126.187
 30
0.00000
  70
    32
  0
VERTEX
  8
0
  5
2F6
 10
89.0499
 20
-126.521
 30
0.00000
  70
    32
  0
VERTEX
  8
0
  5
2F7
 10
87.9888
 20
-126.908
 30
0.00000
  70
    32
  0
VERTEX
  8
0
  5
2F8
 10
86.9481
 20
-127.346
 30
0.00000
  70
    32
  0
VERTEX
  8
0
  5
2F9
 10
85.9302
 20
-127.835
 30
0.00000
  70
    32
  0
VERTEX
  8
0
  5
2FA
 10
84.9376
 20
-128.373
 30
0.00000
  70
    32
  0
VERTEX
  8
0
  5
2FB
 10
83.9728
 20
-128.959
 30
0.00000
  70
    32
  0
VERTEX
  8
0
  5
2FC
 10
83.0381
 20
-129.592
 30
0.00000
  70
    32
  0
VERTEX
  8
0
  5
2FD
 10
82.1356
 20
-130.271
 30
0.00000
  70
    32
  0
VERTEX
  8
0
  5
2FE
 10
81.2676
 20
-130.992
 30
0.00000
  70
    32
  0
VERTEX
  8
0
  5
2FF
 10
80.4362
 20
-131.756
 30
0.00000
  70
    32
  0
VERTEX
  8
0
  5
300
 10
79.6433
 20
-132.560
 30
0.00000
  70
    32
  0
VERTEX
  8
0
  5
301
 10
78.8909
 20
-133.401
 30
0.00000
  70
    32
  0
VERTEX
  8
0
  5
302
 10
78.1808
 20
-134.279
 30
0.00000
  70
    32
  0
VERTEX
  8
0
  5
303
 10
77.5147
 20
-135.190
 30
0.00000
  70
    32
  0
VERTEX
  8
0
  5
304
 10
76.8942
 20
-136.134
 30
0.00000
  70
    32
  0
VERTEX
  8
0
  5
305
 10
76.3208
 20
-137.106
 30
0.00000
  70
    32
  0
VERTEX
  8
0
  5
306
 10
75.7959
 20
-138.106
 30
0.00000
  70
    32
  0
VERTEX
  8
0
  5
307
 10
75.3207
 20
-139.131
 30
0.00000
  70
    32
  0
VERTEX
  8
0
  5
308
 10
74.8964
 20
-140.177
 30
0.00000
  70
    32
  0
VERTEX
  8
0
  5
309
 10
74.5241
 20
-141.243
 30
0.00000
  70
    32
  0
VERTEX
  8
0
  5
30A
 10
74.2045
 20
-142.327
 30
0.00000
  70
    32
  0
VERTEX
  8
0
  5
30B
 10
73.9386
 20
-143.425
 30
0.00000
  70
    32
  0
VERTEX
  8
0
  5
30C
 10
73.7268
 20
-144.535
 30
0.00000
  70
    32
  0
VERTEX
  8
0
  5
30D
 10
73.5698
 20
-145.654
 30
0.00000
  70
    32
  0
VERTEX
  8
0
  5
30E
 10
73.4679
 20
-146.779
 30
0.00000
  70
    32
  0
VERTEX
  8
0
  5
30F
 10
73.4213
 20
-147.908
 30
0.00000
  70
    32
  0
VERTEX
  8
0
  5
310
 10
73.4302
 20
-149.039
 30
0.00000
  70
    32
  0
VERTEX
  8
0
  5
311
 10
73.4946
 20
-150.167
 30
0.00000
  70
    32
  0
VERTEX
  8
0
  5
312
 10
73.6142
 20
-151.292
 30
0.00000
  70
    32
  0
VERTEX
  8
0
  5
313
 10
73.7889
 20
-152.409
 30
0.00000
  70
    32
  0
VERTEX
  8
0
  5
314
 10
74.0181
 20
-153.516
 30
0.00000
  70
    32
  0
VERTEX
  8
0
  5
315
 10
74.3013
 20
-154.611
 30
0.00000
  70
    32
  0
VERTEX
  8
0
  5
316
 10
74.6379
 20
-155.691
 30
0.00000
  70
    32
  0
VERTEX
  8
0
  5
317
 10
75.0271
 20
-156.753
 30
0.00000
  70
    32
  0
VERTEX
  8
0
  5
318
 10
75.4678
 20
-157.795
 30
0.00000
  70
    32
  0
VERTEX
  8
0
  5
319
 10
75.9591
 20
-158.814
 30
0.00000
  70
    32
  0
VERTEX
  8
0
  5
31A
 10
76.4997
 20
-159.808
 30
0.00000
  70
    32
  0
VERTEX
  8
0
  5
31B
 10
77.0884
 20
-160.774
 30
0.00000
  70
    32
  0
VERTEX
  8
0
  5
31C
 10
77.7237
 20
-161.711
 30
0.00000
  70
    32
  0
VERTEX
  8
0
  5
31D
 10
78.4041
 20
-162.615
 30
0.00000
  70
    32
  0
VERTEX
  8
0
  5
31E
 10
79.1280
 20
-163.485
 30
0.00000
  70
    32
  0
VERTEX
  8
0
  5
31F
 10
79.8936
 20
-164.318
 30
0.00000
  70
    32
  0
VERTEX
  8
0
  5
320
 10
80.6990
 20
-165.113
 30
0.00000
  70
    32
  0
VERTEX
  8
0
  5
321
 10
81.5424
 20
-165.868
 30
0.00000
  70
    32
  0
VERTEX
  8
0
  5
322
 10
82.4217
 20
-166.580
 30
0.00000
  70
    32
  0
VERTEX
  8
0
  5
323
 10
83.3348
 20
-167.248
 30
0.00000
  70
    32
  0
VERTEX
  8
0
  5
324
 10
84.2795
 20
-167.871
 30
0.00000
  70
    32
  0
VERTEX
  8
0
  5
325
 10
85.2534
 20
-168.447
 30
0.00000
  70
    32
  0
VERTEX
  8
0
  5
326
 10
86.2544
 20
-168.974
 30
0.00000
  70
    32
  0
VERTEX
  8
0
  5
327
 10
87.2799
 20
-169.452
 30
0.00000
  70
    32
  0
VERTEX
  8
0
  5
328
 10
88.3274
 20
-169.879
 30
0.00000
  70
    32
  0
VERTEX
  8
0
  5
329
 10
89.3946
 20
-170.254
 30
0.00000
  70
    32
  0
VERTEX
  8
0
  5
32A
 10
90.4787
 20
-170.576
 30
0.00000
  70
    32
  0
VERTEX
  8
0
  5
32B
 10
91.5772
 20
-170.845
 30
0.00000
  70
    32
  0
VERTEX
  8
0
  5
32C
 10
92.6874
 20
-171.059
 30
0.00000
  70
    32
  0
VERTEX
  8
0
  5
32D
 10
93.8066
 20
-171.219
 30
0.00000
  70
    32
  0
VERTEX
  8
0
  5
32E
 10
94.9323
 20
-171.324
 30
0.00000
  70
    32
  0
VERTEX
  8
0
  5
32F
 10
96.0615
 20
-171.373
 30
0.00000
  70
    32
  0
VERTEX
  8
0
  5
330
 10
97.1917
 20
-171.367
 30
0.00000
  70
    32
  0
VERTEX
  8
0
  5
331
 10
98.3201
 20
-171.305
 30
0.00000
  70
    32
  0
VERTEX
  8
0
  5
332
 10
99.4440
 20
-171.188
 30
0.00000
  70
    32
  0
VERTEX
  8
0
  5
333
 10
100.561
 20
-171.016
 30
0.00000
  70
    32
  0
VERTEX
  8
0
  5
334
 10
101.667
 20
-170.790
 30
0.00000
  70
    32
  0
VERTEX
  8
0
  5
335
 10
102.762
 20
-170.509
 30
0.00000
  70
    32
  0
VERTEX
  8
0
  5
336
 10
103.840
 20
-170.175
 30
0.00000
  70
    32
  0
VERTEX
  8
0
  5
337
 10
104.902
 20
-169.789
 30
0.00000
  70
    32
  0
VERTEX
  8
0
  5
338
 10
105.942
 20
-169.350
 30
0.00000
  70
    32
  0
VERTEX
  8
0
  5
339
 10
106.960
 20
-168.862
 30
0.00000
  70
    32
  0
VERTEX
  8
0
  5
33A
 10
107.953
 20
-168.323
 30
0.00000
  70
    32
  0
VERTEX
  8
0
  5
33B
 10
108.918
 20
-167.737
 30
0.00000
  70
    32
  0
VERTEX
  8
0
  5
33C
 10
109.852
 20
-167.104
 30
0.00000
  70
    32
  0
VERTEX
  8
0
  5
33D
 10
110.755
 20
-166.426
 30
0.00000
  70
    32
  0
VERTEX
  8
0
  5
33E
 10
111.623
 20
-165.704
 30
0.00000
  70
    32
  0
VERTEX
  8
0
  5
33F
 10
112.454
 20
-164.940
 30
0.00000
  70
    32
  0
SEQEND
  8
0
  5
340
  0
ENDSEC
  0
EOF
