ISO-10303-21;
HEADER;
/* Generated by software containing ST-Developer
 * from STEP Tools, Inc. (www.steptools.com) 
 */

FILE_DESCRIPTION(
/* description */ ('Montageplatte'),
/* implementation_level */ '2;1');

FILE_NAME(
/* name */ 
'Q:\\G200033  -  HBPO EQM V1_V3 - BMW FAAR_WE\\08 Konstruktion\\05 Z31
9-00\\319-20-00 Montagelinie V3\\319-20-09 VL3-080\\319-20-09-29-07 Mo
ntageplatte.stp',
/* time_stamp */ '2021-03-10T13:05:27+01:00',
/* author */ ('herr_rommel'),
/* organization */ (''),
/* preprocessor_version */ 'ST-DEVELOPER v17',
/* originating_system */ 'Autodesk Inventor 2018',
/* authorisation */ '');

FILE_SCHEMA (('AUTOMOTIVE_DESIGN { 1 0 10303 214 3 1 1 }'));
ENDSEC;

DATA;
#10=MECHANICAL_DESIGN_GEOMETRIC_PRESENTATION_REPRESENTATION('',(#13),#321);
#11=SHAPE_REPRESENTATION_RELATIONSHIP('SRR','None',#328,#12);
#12=ADVANCED_BREP_SHAPE_REPRESENTATION('',(#14),#320);
#13=STYLED_ITEM('',(#337),#14);
#14=MANIFOLD_SOLID_BREP('Volumenk\X\F6rper1',#191);
#15=FACE_OUTER_BOUND('',#25,.T.);
#16=FACE_OUTER_BOUND('',#26,.T.);
#17=FACE_OUTER_BOUND('',#27,.T.);
#18=FACE_OUTER_BOUND('',#28,.T.);
#19=FACE_OUTER_BOUND('',#29,.T.);
#20=FACE_OUTER_BOUND('',#30,.T.);
#21=FACE_OUTER_BOUND('',#31,.T.);
#22=FACE_OUTER_BOUND('',#32,.T.);
#23=FACE_OUTER_BOUND('',#33,.T.);
#24=FACE_OUTER_BOUND('',#34,.T.);
#25=EDGE_LOOP('',(#123,#124,#125,#126));
#26=EDGE_LOOP('',(#127,#128,#129,#130));
#27=EDGE_LOOP('',(#131,#132,#133,#134,#135,#136,#137,#138));
#28=EDGE_LOOP('',(#139,#140,#141,#142));
#29=EDGE_LOOP('',(#143,#144,#145,#146));
#30=EDGE_LOOP('',(#147,#148,#149,#150));
#31=EDGE_LOOP('',(#151,#152,#153,#154));
#32=EDGE_LOOP('',(#155,#156,#157,#158));
#33=EDGE_LOOP('',(#159,#160,#161,#162));
#34=EDGE_LOOP('',(#163,#164,#165,#166,#167,#168,#169,#170));
#35=LINE('',#271,#59);
#36=LINE('',#273,#60);
#37=LINE('',#275,#61);
#38=LINE('',#276,#62);
#39=LINE('',#279,#63);
#40=LINE('',#281,#64);
#41=LINE('',#282,#65);
#42=LINE('',#285,#66);
#43=LINE('',#287,#67);
#44=LINE('',#289,#68);
#45=LINE('',#291,#69);
#46=LINE('',#293,#70);
#47=LINE('',#294,#71);
#48=LINE('',#298,#72);
#49=LINE('',#299,#73);
#50=LINE('',#300,#74);
#51=LINE('',#303,#75);
#52=LINE('',#304,#76);
#53=LINE('',#307,#77);
#54=LINE('',#308,#78);
#55=LINE('',#311,#79);
#56=LINE('',#312,#80);
#57=LINE('',#314,#81);
#58=LINE('',#316,#82);
#59=VECTOR('',#225,10.);
#60=VECTOR('',#226,10.);
#61=VECTOR('',#227,10.);
#62=VECTOR('',#228,10.);
#63=VECTOR('',#231,10.);
#64=VECTOR('',#232,10.);
#65=VECTOR('',#233,10.);
#66=VECTOR('',#236,10.);
#67=VECTOR('',#237,10.);
#68=VECTOR('',#238,10.);
#69=VECTOR('',#239,10.);
#70=VECTOR('',#240,10.);
#71=VECTOR('',#241,10.);
#72=VECTOR('',#244,10.);
#73=VECTOR('',#245,10.);
#74=VECTOR('',#246,10.);
#75=VECTOR('',#249,10.);
#76=VECTOR('',#250,10.);
#77=VECTOR('',#253,10.);
#78=VECTOR('',#254,10.);
#79=VECTOR('',#257,10.);
#80=VECTOR('',#258,10.);
#81=VECTOR('',#261,10.);
#82=VECTOR('',#264,10.);
#83=VERTEX_POINT('',#269);
#84=VERTEX_POINT('',#270);
#85=VERTEX_POINT('',#272);
#86=VERTEX_POINT('',#274);
#87=VERTEX_POINT('',#278);
#88=VERTEX_POINT('',#280);
#89=VERTEX_POINT('',#284);
#90=VERTEX_POINT('',#286);
#91=VERTEX_POINT('',#288);
#92=VERTEX_POINT('',#290);
#93=VERTEX_POINT('',#292);
#94=VERTEX_POINT('',#296);
#95=VERTEX_POINT('',#297);
#96=VERTEX_POINT('',#302);
#97=VERTEX_POINT('',#306);
#98=VERTEX_POINT('',#310);
#99=EDGE_CURVE('',#83,#84,#35,.T.);
#100=EDGE_CURVE('',#84,#85,#36,.T.);
#101=EDGE_CURVE('',#85,#86,#37,.T.);
#102=EDGE_CURVE('',#86,#83,#38,.T.);
#103=EDGE_CURVE('',#87,#86,#39,.T.);
#104=EDGE_CURVE('',#88,#87,#40,.T.);
#105=EDGE_CURVE('',#83,#88,#41,.T.);
#106=EDGE_CURVE('',#85,#89,#42,.T.);
#107=EDGE_CURVE('',#90,#89,#43,.T.);
#108=EDGE_CURVE('',#90,#91,#44,.T.);
#109=EDGE_CURVE('',#92,#91,#45,.T.);
#110=EDGE_CURVE('',#92,#93,#46,.T.);
#111=EDGE_CURVE('',#87,#93,#47,.T.);
#112=EDGE_CURVE('',#94,#95,#48,.T.);
#113=EDGE_CURVE('',#95,#90,#49,.T.);
#114=EDGE_CURVE('',#89,#94,#50,.T.);
#115=EDGE_CURVE('',#96,#95,#51,.T.);
#116=EDGE_CURVE('',#91,#96,#52,.T.);
#117=EDGE_CURVE('',#96,#97,#53,.T.);
#118=EDGE_CURVE('',#97,#92,#54,.T.);
#119=EDGE_CURVE('',#98,#88,#55,.T.);
#120=EDGE_CURVE('',#93,#98,#56,.T.);
#121=EDGE_CURVE('',#98,#97,#57,.T.);
#122=EDGE_CURVE('',#94,#84,#58,.T.);
#123=ORIENTED_EDGE('',*,*,#99,.T.);
#124=ORIENTED_EDGE('',*,*,#100,.T.);
#125=ORIENTED_EDGE('',*,*,#101,.T.);
#126=ORIENTED_EDGE('',*,*,#102,.T.);
#127=ORIENTED_EDGE('',*,*,#102,.F.);
#128=ORIENTED_EDGE('',*,*,#103,.F.);
#129=ORIENTED_EDGE('',*,*,#104,.F.);
#130=ORIENTED_EDGE('',*,*,#105,.F.);
#131=ORIENTED_EDGE('',*,*,#101,.F.);
#132=ORIENTED_EDGE('',*,*,#106,.T.);
#133=ORIENTED_EDGE('',*,*,#107,.F.);
#134=ORIENTED_EDGE('',*,*,#108,.T.);
#135=ORIENTED_EDGE('',*,*,#109,.F.);
#136=ORIENTED_EDGE('',*,*,#110,.T.);
#137=ORIENTED_EDGE('',*,*,#111,.F.);
#138=ORIENTED_EDGE('',*,*,#103,.T.);
#139=ORIENTED_EDGE('',*,*,#112,.T.);
#140=ORIENTED_EDGE('',*,*,#113,.T.);
#141=ORIENTED_EDGE('',*,*,#107,.T.);
#142=ORIENTED_EDGE('',*,*,#114,.T.);
#143=ORIENTED_EDGE('',*,*,#113,.F.);
#144=ORIENTED_EDGE('',*,*,#115,.F.);
#145=ORIENTED_EDGE('',*,*,#116,.F.);
#146=ORIENTED_EDGE('',*,*,#108,.F.);
#147=ORIENTED_EDGE('',*,*,#117,.T.);
#148=ORIENTED_EDGE('',*,*,#118,.T.);
#149=ORIENTED_EDGE('',*,*,#109,.T.);
#150=ORIENTED_EDGE('',*,*,#116,.T.);
#151=ORIENTED_EDGE('',*,*,#119,.T.);
#152=ORIENTED_EDGE('',*,*,#104,.T.);
#153=ORIENTED_EDGE('',*,*,#111,.T.);
#154=ORIENTED_EDGE('',*,*,#120,.T.);
#155=ORIENTED_EDGE('',*,*,#118,.F.);
#156=ORIENTED_EDGE('',*,*,#121,.F.);
#157=ORIENTED_EDGE('',*,*,#120,.F.);
#158=ORIENTED_EDGE('',*,*,#110,.F.);
#159=ORIENTED_EDGE('',*,*,#100,.F.);
#160=ORIENTED_EDGE('',*,*,#122,.F.);
#161=ORIENTED_EDGE('',*,*,#114,.F.);
#162=ORIENTED_EDGE('',*,*,#106,.F.);
#163=ORIENTED_EDGE('',*,*,#99,.F.);
#164=ORIENTED_EDGE('',*,*,#105,.T.);
#165=ORIENTED_EDGE('',*,*,#119,.F.);
#166=ORIENTED_EDGE('',*,*,#121,.T.);
#167=ORIENTED_EDGE('',*,*,#117,.F.);
#168=ORIENTED_EDGE('',*,*,#115,.T.);
#169=ORIENTED_EDGE('',*,*,#112,.F.);
#170=ORIENTED_EDGE('',*,*,#122,.T.);
#171=PLANE('',#211);
#172=PLANE('',#212);
#173=PLANE('',#213);
#174=PLANE('',#214);
#175=PLANE('',#215);
#176=PLANE('',#216);
#177=PLANE('',#217);
#178=PLANE('',#218);
#179=PLANE('',#219);
#180=PLANE('',#220);
#181=ADVANCED_FACE('',(#15),#171,.T.);
#182=ADVANCED_FACE('',(#16),#172,.T.);
#183=ADVANCED_FACE('',(#17),#173,.F.);
#184=ADVANCED_FACE('',(#18),#174,.T.);
#185=ADVANCED_FACE('',(#19),#175,.T.);
#186=ADVANCED_FACE('',(#20),#176,.T.);
#187=ADVANCED_FACE('',(#21),#177,.T.);
#188=ADVANCED_FACE('',(#22),#178,.T.);
#189=ADVANCED_FACE('',(#23),#179,.T.);
#190=ADVANCED_FACE('',(#24),#180,.T.);
#191=CLOSED_SHELL('',(#181,#182,#183,#184,#185,#186,#187,#188,#189,#190));
#192=DERIVED_UNIT_ELEMENT(#194,1.);
#193=DERIVED_UNIT_ELEMENT(#323,3.);
#194=(
MASS_UNIT()
NAMED_UNIT(*)
SI_UNIT($,.GRAM.)
);
#195=DERIVED_UNIT((#192,#193));
#196=MEASURE_REPRESENTATION_ITEM('density measure',
POSITIVE_RATIO_MEASURE(2.7),#195);
#197=PROPERTY_DEFINITION_REPRESENTATION(#202,#199);
#198=PROPERTY_DEFINITION_REPRESENTATION(#203,#200);
#199=REPRESENTATION('material name',(#201),#320);
#200=REPRESENTATION('density',(#196),#320);
#201=DESCRIPTIVE_REPRESENTATION_ITEM('AlMgSi1','AlMgSi1');
#202=PROPERTY_DEFINITION('material property','material name',#330);
#203=PROPERTY_DEFINITION('material property','density of part',#330);
#204=DATE_TIME_ROLE('creation_date');
#205=APPLIED_DATE_AND_TIME_ASSIGNMENT(#206,#204,(#330));
#206=DATE_AND_TIME(#207,#208);
#207=CALENDAR_DATE(2021,12,2);
#208=LOCAL_TIME(14,14,9.,#209);
#209=COORDINATED_UNIVERSAL_TIME_OFFSET(0,0,.BEHIND.);
#210=AXIS2_PLACEMENT_3D('placement',#267,#221,#222);
#211=AXIS2_PLACEMENT_3D('',#268,#223,#224);
#212=AXIS2_PLACEMENT_3D('',#277,#229,#230);
#213=AXIS2_PLACEMENT_3D('',#283,#234,#235);
#214=AXIS2_PLACEMENT_3D('',#295,#242,#243);
#215=AXIS2_PLACEMENT_3D('',#301,#247,#248);
#216=AXIS2_PLACEMENT_3D('',#305,#251,#252);
#217=AXIS2_PLACEMENT_3D('',#309,#255,#256);
#218=AXIS2_PLACEMENT_3D('',#313,#259,#260);
#219=AXIS2_PLACEMENT_3D('',#315,#262,#263);
#220=AXIS2_PLACEMENT_3D('',#317,#265,#266);
#221=DIRECTION('axis',(0.,0.,1.));
#222=DIRECTION('refdir',(1.,0.,0.));
#223=DIRECTION('center_axis',(-0.707106781186547,-0.707106781186548,0.));
#224=DIRECTION('ref_axis',(0.,0.,1.));
#225=DIRECTION('',(-0.707106781186548,0.707106781186547,0.));
#226=DIRECTION('',(0.,0.,-1.));
#227=DIRECTION('',(0.707106781186548,-0.707106781186547,0.));
#228=DIRECTION('',(0.,0.,1.));
#229=DIRECTION('center_axis',(-8.88178419700125E-17,-1.,0.));
#230=DIRECTION('ref_axis',(1.,-8.88178419700125E-17,0.));
#231=DIRECTION('',(-1.,8.88178419700125E-17,0.));
#232=DIRECTION('',(0.,0.,-1.));
#233=DIRECTION('',(1.,-8.88178419700125E-17,0.));
#234=DIRECTION('center_axis',(0.,0.,1.));
#235=DIRECTION('ref_axis',(1.,0.,0.));
#236=DIRECTION('',(-3.5527136788005E-16,1.,0.));
#237=DIRECTION('',(-0.707106781186548,-0.707106781186547,0.));
#238=DIRECTION('',(1.,0.,0.));
#239=DIRECTION('',(-0.707106781186547,0.707106781186548,0.));
#240=DIRECTION('',(1.77635683940025E-16,-1.,0.));
#241=DIRECTION('',(0.707106781186548,0.707106781186548,0.));
#242=DIRECTION('center_axis',(-0.707106781186547,0.707106781186548,0.));
#243=DIRECTION('ref_axis',(0.,0.,1.));
#244=DIRECTION('',(0.707106781186548,0.707106781186547,0.));
#245=DIRECTION('',(0.,0.,-1.));
#246=DIRECTION('',(0.,0.,1.));
#247=DIRECTION('center_axis',(0.,1.,0.));
#248=DIRECTION('ref_axis',(-1.,0.,0.));
#249=DIRECTION('',(-1.,0.,0.));
#250=DIRECTION('',(0.,0.,1.));
#251=DIRECTION('center_axis',(0.707106781186548,0.707106781186547,0.));
#252=DIRECTION('ref_axis',(0.,0.,-1.));
#253=DIRECTION('',(0.707106781186547,-0.707106781186548,0.));
#254=DIRECTION('',(0.,0.,-1.));
#255=DIRECTION('center_axis',(0.707106781186548,-0.707106781186548,0.));
#256=DIRECTION('ref_axis',(0.,0.,-1.));
#257=DIRECTION('',(-0.707106781186548,-0.707106781186548,0.));
#258=DIRECTION('',(0.,0.,1.));
#259=DIRECTION('center_axis',(1.,1.77635683940025E-16,0.));
#260=DIRECTION('ref_axis',(-1.77635683940025E-16,1.,0.));
#261=DIRECTION('',(-1.77635683940025E-16,1.,0.));
#262=DIRECTION('center_axis',(-1.,-3.5527136788005E-16,0.));
#263=DIRECTION('ref_axis',(3.5527136788005E-16,-1.,0.));
#264=DIRECTION('',(3.5527136788005E-16,-1.,0.));
#265=DIRECTION('center_axis',(0.,0.,1.));
#266=DIRECTION('ref_axis',(1.,0.,0.));
#267=CARTESIAN_POINT('',(0.,0.,0.));
#268=CARTESIAN_POINT('Origin',(-24.,-11.5,0.));
#269=CARTESIAN_POINT('',(-23.,-12.5,10.));
#270=CARTESIAN_POINT('',(-25.,-10.5,10.));
#271=CARTESIAN_POINT('',(-20.875,-14.625,10.));
#272=CARTESIAN_POINT('',(-25.,-10.5,0.));
#273=CARTESIAN_POINT('',(-25.,-10.5,0.));
#274=CARTESIAN_POINT('',(-23.,-12.5,0.));
#275=CARTESIAN_POINT('',(-20.875,-14.625,0.));
#276=CARTESIAN_POINT('',(-23.,-12.5,0.));
#277=CARTESIAN_POINT('Origin',(-25.,-12.5,0.));
#278=CARTESIAN_POINT('',(23.,-12.5,0.));
#279=CARTESIAN_POINT('',(25.,-12.5,0.));
#280=CARTESIAN_POINT('',(23.,-12.5,10.));
#281=CARTESIAN_POINT('',(23.,-12.5,0.));
#282=CARTESIAN_POINT('',(25.,-12.5,10.));
#283=CARTESIAN_POINT('Origin',(5.32907051820075E-15,2.51650552248369E-15,
0.));
#284=CARTESIAN_POINT('',(-25.,10.5,0.));
#285=CARTESIAN_POINT('',(-25.,-12.5,0.));
#286=CARTESIAN_POINT('',(-23.,12.5,0.));
#287=CARTESIAN_POINT('',(-20.875,14.625,0.));
#288=CARTESIAN_POINT('',(23.,12.5,0.));
#289=CARTESIAN_POINT('',(-25.,12.5,0.));
#290=CARTESIAN_POINT('',(25.,10.5,0.));
#291=CARTESIAN_POINT('',(20.875,14.625,0.));
#292=CARTESIAN_POINT('',(25.,-10.5,0.));
#293=CARTESIAN_POINT('',(25.,12.5,0.));
#294=CARTESIAN_POINT('',(20.875,-14.625,0.));
#295=CARTESIAN_POINT('Origin',(-24.,11.5,0.));
#296=CARTESIAN_POINT('',(-25.,10.5,10.));
#297=CARTESIAN_POINT('',(-23.,12.5,10.));
#298=CARTESIAN_POINT('',(-20.875,14.625,10.));
#299=CARTESIAN_POINT('',(-23.,12.5,0.));
#300=CARTESIAN_POINT('',(-25.,10.5,0.));
#301=CARTESIAN_POINT('Origin',(25.,12.5,0.));
#302=CARTESIAN_POINT('',(23.,12.5,10.));
#303=CARTESIAN_POINT('',(-25.,12.5,10.));
#304=CARTESIAN_POINT('',(23.,12.5,0.));
#305=CARTESIAN_POINT('Origin',(24.,11.5,0.));
#306=CARTESIAN_POINT('',(25.,10.5,10.));
#307=CARTESIAN_POINT('',(20.875,14.625,10.));
#308=CARTESIAN_POINT('',(25.,10.5,0.));
#309=CARTESIAN_POINT('Origin',(24.,-11.5,0.));
#310=CARTESIAN_POINT('',(25.,-10.5,10.));
#311=CARTESIAN_POINT('',(20.875,-14.625,10.));
#312=CARTESIAN_POINT('',(25.,-10.5,0.));
#313=CARTESIAN_POINT('Origin',(25.,-12.5,0.));
#314=CARTESIAN_POINT('',(25.,12.5,10.));
#315=CARTESIAN_POINT('Origin',(-25.,12.5,0.));
#316=CARTESIAN_POINT('',(-25.,-12.5,10.));
#317=CARTESIAN_POINT('Origin',(4.44089209850063E-15,2.22044604925031E-15,
10.));
#318=UNCERTAINTY_MEASURE_WITH_UNIT(LENGTH_MEASURE(0.01),#322,
'DISTANCE_ACCURACY_VALUE',
'Maximum model space distance between geometric entities at asserted c
onnectivities');
#319=UNCERTAINTY_MEASURE_WITH_UNIT(LENGTH_MEASURE(0.01),#322,
'DISTANCE_ACCURACY_VALUE',
'Maximum model space distance between geometric entities at asserted c
onnectivities');
#320=(
GEOMETRIC_REPRESENTATION_CONTEXT(3)
GLOBAL_UNCERTAINTY_ASSIGNED_CONTEXT((#318))
GLOBAL_UNIT_ASSIGNED_CONTEXT((#322,#325,#324))
REPRESENTATION_CONTEXT('','3D')
);
#321=(
GEOMETRIC_REPRESENTATION_CONTEXT(3)
GLOBAL_UNCERTAINTY_ASSIGNED_CONTEXT((#319))
GLOBAL_UNIT_ASSIGNED_CONTEXT((#322,#325,#324))
REPRESENTATION_CONTEXT('','3D')
);
#322=(
LENGTH_UNIT()
NAMED_UNIT(*)
SI_UNIT(.MILLI.,.METRE.)
);
#323=(
LENGTH_UNIT()
NAMED_UNIT(*)
SI_UNIT(.CENTI.,.METRE.)
);
#324=(
NAMED_UNIT(*)
SI_UNIT($,.STERADIAN.)
SOLID_ANGLE_UNIT()
);
#325=(
NAMED_UNIT(*)
PLANE_ANGLE_UNIT()
SI_UNIT($,.RADIAN.)
);
#326=SHAPE_DEFINITION_REPRESENTATION(#327,#328);
#327=PRODUCT_DEFINITION_SHAPE('',$,#330);
#328=SHAPE_REPRESENTATION('',(#210),#320);
#329=PRODUCT_DEFINITION_CONTEXT('part definition',#334,'design');
#330=PRODUCT_DEFINITION('319-20-09-29-07',
'319-20-09-29-07 Montageplatte',#331,#329);
#331=PRODUCT_DEFINITION_FORMATION('',$,#336);
#332=PRODUCT_RELATED_PRODUCT_CATEGORY('319-20-09-29-07 Montageplatte',
'319-20-09-29-07 Montageplatte',(#336));
#333=APPLICATION_PROTOCOL_DEFINITION('international standard',
'automotive_design',2009,#334);
#334=APPLICATION_CONTEXT(
'Core Data for Automotive Mechanical Design Process');
#335=PRODUCT_CONTEXT('part definition',#334,'mechanical');
#336=PRODUCT('319-20-09-29-07','319-20-09-29-07 Montageplatte',
'Montageplatte',(#335));
#337=PRESENTATION_STYLE_ASSIGNMENT((#338));
#338=SURFACE_STYLE_USAGE(.BOTH.,#339);
#339=SURFACE_SIDE_STYLE('',(#340));
#340=SURFACE_STYLE_FILL_AREA(#341);
#341=FILL_AREA_STYLE('',(#342));
#342=FILL_AREA_STYLE_COLOUR('',#343);
#343=COLOUR_RGB('',0.749019607843137,0.749019607843137,0.749019607843137);
ENDSEC;
END-ISO-10303-21;
