ISO-10303-21;
HEADER;
/* Generated by software containing ST-Developer
 * from STEP Tools, Inc. (www.steptools.com) 
 */

FILE_DESCRIPTION(
/* description */ ('Schlussplatte'),
/* implementation_level */ '2;1');

FILE_NAME(
/* name */ 
'Q:\\G200033  -  HBPO EQM V1_V3 - BMW FAAR_WE\\08 Konstruktion\\05 Z31
9-00\\319-20-00 Montagelinie V3\\319-20-09 VL3-080\\319-20-09-29-16 Sc
hlussplatte.stp',
/* time_stamp */ '2021-03-10T13:47:23+01:00',
/* author */ ('herr_rommel'),
/* organization */ (''),
/* preprocessor_version */ 'ST-DEVELOPER v17',
/* originating_system */ 'Autodesk Inventor 2018',
/* authorisation */ '');

FILE_SCHEMA (('AUTOMOTIVE_DESIGN { 1 0 10303 214 3 1 1 }'));
ENDSEC;

DATA;
#10=MECHANICAL_DESIGN_GEOMETRIC_PRESENTATION_REPRESENTATION('',(#13),#329);
#11=SHAPE_REPRESENTATION_RELATIONSHIP('SRR','None',#336,#12);
#12=ADVANCED_BREP_SHAPE_REPRESENTATION('',(#14),#328);
#13=STYLED_ITEM('',(#345),#14);
#14=MANIFOLD_SOLID_BREP('Volumenk\X\F6rper1',#183);
#15=PLANE('',#206);
#16=PLANE('',#207);
#17=PLANE('',#213);
#18=PLANE('',#216);
#19=PLANE('',#219);
#20=PLANE('',#220);
#21=FACE_OUTER_BOUND('',#31,.T.);
#22=FACE_OUTER_BOUND('',#32,.T.);
#23=FACE_OUTER_BOUND('',#33,.T.);
#24=FACE_OUTER_BOUND('',#34,.T.);
#25=FACE_OUTER_BOUND('',#35,.T.);
#26=FACE_OUTER_BOUND('',#36,.T.);
#27=FACE_OUTER_BOUND('',#37,.T.);
#28=FACE_OUTER_BOUND('',#38,.T.);
#29=FACE_OUTER_BOUND('',#39,.T.);
#30=FACE_OUTER_BOUND('',#40,.T.);
#31=EDGE_LOOP('',(#121,#122,#123,#124));
#32=EDGE_LOOP('',(#125,#126,#127,#128));
#33=EDGE_LOOP('',(#129,#130,#131,#132,#133,#134,#135,#136));
#34=EDGE_LOOP('',(#137,#138,#139,#140));
#35=EDGE_LOOP('',(#141,#142,#143,#144));
#36=EDGE_LOOP('',(#145,#146,#147,#148));
#37=EDGE_LOOP('',(#149,#150,#151,#152));
#38=EDGE_LOOP('',(#153,#154,#155,#156));
#39=EDGE_LOOP('',(#157,#158,#159,#160));
#40=EDGE_LOOP('',(#161,#162,#163,#164,#165,#166,#167,#168));
#41=LINE('',#281,#57);
#42=LINE('',#284,#58);
#43=LINE('',#287,#59);
#44=LINE('',#289,#60);
#45=LINE('',#290,#61);
#46=LINE('',#293,#62);
#47=LINE('',#297,#63);
#48=LINE('',#301,#64);
#49=LINE('',#306,#65);
#50=LINE('',#309,#66);
#51=LINE('',#310,#67);
#52=LINE('',#314,#68);
#53=LINE('',#317,#69);
#54=LINE('',#318,#70);
#55=LINE('',#322,#71);
#56=LINE('',#324,#72);
#57=VECTOR('',#227,10.);
#58=VECTOR('',#230,10.);
#59=VECTOR('',#233,10.);
#60=VECTOR('',#234,10.);
#61=VECTOR('',#235,10.);
#62=VECTOR('',#238,10.);
#63=VECTOR('',#241,10.);
#64=VECTOR('',#244,10.);
#65=VECTOR('',#251,10.);
#66=VECTOR('',#254,10.);
#67=VECTOR('',#255,10.);
#68=VECTOR('',#260,10.);
#69=VECTOR('',#263,10.);
#70=VECTOR('',#264,10.);
#71=VECTOR('',#269,10.);
#72=VECTOR('',#272,10.);
#73=CIRCLE('',#204,4.);
#74=CIRCLE('',#205,4.);
#75=CIRCLE('',#208,4.);
#76=CIRCLE('',#209,4.);
#77=CIRCLE('',#210,4.);
#78=CIRCLE('',#212,4.);
#79=CIRCLE('',#215,4.);
#80=CIRCLE('',#218,4.);
#81=VERTEX_POINT('',#277);
#82=VERTEX_POINT('',#278);
#83=VERTEX_POINT('',#280);
#84=VERTEX_POINT('',#282);
#85=VERTEX_POINT('',#286);
#86=VERTEX_POINT('',#288);
#87=VERTEX_POINT('',#292);
#88=VERTEX_POINT('',#294);
#89=VERTEX_POINT('',#296);
#90=VERTEX_POINT('',#298);
#91=VERTEX_POINT('',#300);
#92=VERTEX_POINT('',#304);
#93=VERTEX_POINT('',#308);
#94=VERTEX_POINT('',#312);
#95=VERTEX_POINT('',#316);
#96=VERTEX_POINT('',#320);
#97=EDGE_CURVE('',#81,#82,#73,.T.);
#98=EDGE_CURVE('',#82,#83,#41,.T.);
#99=EDGE_CURVE('',#83,#84,#74,.T.);
#100=EDGE_CURVE('',#84,#81,#42,.T.);
#101=EDGE_CURVE('',#85,#84,#43,.T.);
#102=EDGE_CURVE('',#86,#85,#44,.T.);
#103=EDGE_CURVE('',#86,#81,#45,.T.);
#104=EDGE_CURVE('',#83,#87,#46,.T.);
#105=EDGE_CURVE('',#88,#87,#75,.T.);
#106=EDGE_CURVE('',#88,#89,#47,.T.);
#107=EDGE_CURVE('',#90,#89,#76,.T.);
#108=EDGE_CURVE('',#90,#91,#48,.T.);
#109=EDGE_CURVE('',#85,#91,#77,.T.);
#110=EDGE_CURVE('',#92,#86,#78,.T.);
#111=EDGE_CURVE('',#91,#92,#49,.T.);
#112=EDGE_CURVE('',#93,#90,#50,.T.);
#113=EDGE_CURVE('',#93,#92,#51,.T.);
#114=EDGE_CURVE('',#94,#93,#79,.T.);
#115=EDGE_CURVE('',#89,#94,#52,.T.);
#116=EDGE_CURVE('',#95,#88,#53,.T.);
#117=EDGE_CURVE('',#95,#94,#54,.T.);
#118=EDGE_CURVE('',#96,#95,#80,.T.);
#119=EDGE_CURVE('',#87,#96,#55,.T.);
#120=EDGE_CURVE('',#82,#96,#56,.T.);
#121=ORIENTED_EDGE('',*,*,#97,.T.);
#122=ORIENTED_EDGE('',*,*,#98,.T.);
#123=ORIENTED_EDGE('',*,*,#99,.T.);
#124=ORIENTED_EDGE('',*,*,#100,.T.);
#125=ORIENTED_EDGE('',*,*,#100,.F.);
#126=ORIENTED_EDGE('',*,*,#101,.F.);
#127=ORIENTED_EDGE('',*,*,#102,.F.);
#128=ORIENTED_EDGE('',*,*,#103,.T.);
#129=ORIENTED_EDGE('',*,*,#99,.F.);
#130=ORIENTED_EDGE('',*,*,#104,.T.);
#131=ORIENTED_EDGE('',*,*,#105,.F.);
#132=ORIENTED_EDGE('',*,*,#106,.T.);
#133=ORIENTED_EDGE('',*,*,#107,.F.);
#134=ORIENTED_EDGE('',*,*,#108,.T.);
#135=ORIENTED_EDGE('',*,*,#109,.F.);
#136=ORIENTED_EDGE('',*,*,#101,.T.);
#137=ORIENTED_EDGE('',*,*,#110,.T.);
#138=ORIENTED_EDGE('',*,*,#102,.T.);
#139=ORIENTED_EDGE('',*,*,#109,.T.);
#140=ORIENTED_EDGE('',*,*,#111,.T.);
#141=ORIENTED_EDGE('',*,*,#111,.F.);
#142=ORIENTED_EDGE('',*,*,#108,.F.);
#143=ORIENTED_EDGE('',*,*,#112,.F.);
#144=ORIENTED_EDGE('',*,*,#113,.T.);
#145=ORIENTED_EDGE('',*,*,#114,.T.);
#146=ORIENTED_EDGE('',*,*,#112,.T.);
#147=ORIENTED_EDGE('',*,*,#107,.T.);
#148=ORIENTED_EDGE('',*,*,#115,.T.);
#149=ORIENTED_EDGE('',*,*,#115,.F.);
#150=ORIENTED_EDGE('',*,*,#106,.F.);
#151=ORIENTED_EDGE('',*,*,#116,.F.);
#152=ORIENTED_EDGE('',*,*,#117,.T.);
#153=ORIENTED_EDGE('',*,*,#118,.T.);
#154=ORIENTED_EDGE('',*,*,#116,.T.);
#155=ORIENTED_EDGE('',*,*,#105,.T.);
#156=ORIENTED_EDGE('',*,*,#119,.T.);
#157=ORIENTED_EDGE('',*,*,#98,.F.);
#158=ORIENTED_EDGE('',*,*,#120,.T.);
#159=ORIENTED_EDGE('',*,*,#119,.F.);
#160=ORIENTED_EDGE('',*,*,#104,.F.);
#161=ORIENTED_EDGE('',*,*,#97,.F.);
#162=ORIENTED_EDGE('',*,*,#103,.F.);
#163=ORIENTED_EDGE('',*,*,#110,.F.);
#164=ORIENTED_EDGE('',*,*,#113,.F.);
#165=ORIENTED_EDGE('',*,*,#114,.F.);
#166=ORIENTED_EDGE('',*,*,#117,.F.);
#167=ORIENTED_EDGE('',*,*,#118,.F.);
#168=ORIENTED_EDGE('',*,*,#120,.F.);
#169=CYLINDRICAL_SURFACE('',#203,4.);
#170=CYLINDRICAL_SURFACE('',#211,4.);
#171=CYLINDRICAL_SURFACE('',#214,4.);
#172=CYLINDRICAL_SURFACE('',#217,4.);
#173=ADVANCED_FACE('',(#21),#169,.T.);
#174=ADVANCED_FACE('',(#22),#15,.T.);
#175=ADVANCED_FACE('',(#23),#16,.F.);
#176=ADVANCED_FACE('',(#24),#170,.T.);
#177=ADVANCED_FACE('',(#25),#17,.T.);
#178=ADVANCED_FACE('',(#26),#171,.T.);
#179=ADVANCED_FACE('',(#27),#18,.T.);
#180=ADVANCED_FACE('',(#28),#172,.T.);
#181=ADVANCED_FACE('',(#29),#19,.T.);
#182=ADVANCED_FACE('',(#30),#20,.T.);
#183=CLOSED_SHELL('',(#173,#174,#175,#176,#177,#178,#179,#180,#181,#182));
#184=DERIVED_UNIT_ELEMENT(#186,1.);
#185=DERIVED_UNIT_ELEMENT(#331,3.);
#186=(
MASS_UNIT()
NAMED_UNIT(*)
SI_UNIT($,.GRAM.)
);
#187=DERIVED_UNIT((#184,#185));
#188=MEASURE_REPRESENTATION_ITEM('density measure',
POSITIVE_RATIO_MEASURE(2.7),#187);
#189=PROPERTY_DEFINITION_REPRESENTATION(#194,#191);
#190=PROPERTY_DEFINITION_REPRESENTATION(#195,#192);
#191=REPRESENTATION('material name',(#193),#328);
#192=REPRESENTATION('density',(#188),#328);
#193=DESCRIPTIVE_REPRESENTATION_ITEM('AlMgSi1','AlMgSi1');
#194=PROPERTY_DEFINITION('material property','material name',#338);
#195=PROPERTY_DEFINITION('material property','density of part',#338);
#196=DATE_TIME_ROLE('creation_date');
#197=APPLIED_DATE_AND_TIME_ASSIGNMENT(#198,#196,(#338));
#198=DATE_AND_TIME(#199,#200);
#199=CALENDAR_DATE(2021,17,2);
#200=LOCAL_TIME(15,21,59.,#201);
#201=COORDINATED_UNIVERSAL_TIME_OFFSET(0,0,.BEHIND.);
#202=AXIS2_PLACEMENT_3D('placement',#275,#221,#222);
#203=AXIS2_PLACEMENT_3D('',#276,#223,#224);
#204=AXIS2_PLACEMENT_3D('',#279,#225,#226);
#205=AXIS2_PLACEMENT_3D('',#283,#228,#229);
#206=AXIS2_PLACEMENT_3D('',#285,#231,#232);
#207=AXIS2_PLACEMENT_3D('',#291,#236,#237);
#208=AXIS2_PLACEMENT_3D('',#295,#239,#240);
#209=AXIS2_PLACEMENT_3D('',#299,#242,#243);
#210=AXIS2_PLACEMENT_3D('',#302,#245,#246);
#211=AXIS2_PLACEMENT_3D('',#303,#247,#248);
#212=AXIS2_PLACEMENT_3D('',#305,#249,#250);
#213=AXIS2_PLACEMENT_3D('',#307,#252,#253);
#214=AXIS2_PLACEMENT_3D('',#311,#256,#257);
#215=AXIS2_PLACEMENT_3D('',#313,#258,#259);
#216=AXIS2_PLACEMENT_3D('',#315,#261,#262);
#217=AXIS2_PLACEMENT_3D('',#319,#265,#266);
#218=AXIS2_PLACEMENT_3D('',#321,#267,#268);
#219=AXIS2_PLACEMENT_3D('',#323,#270,#271);
#220=AXIS2_PLACEMENT_3D('',#325,#273,#274);
#221=DIRECTION('axis',(0.,0.,1.));
#222=DIRECTION('refdir',(1.,0.,0.));
#223=DIRECTION('center_axis',(0.,0.,1.));
#224=DIRECTION('ref_axis',(0.707106781186548,-0.707106781186547,0.));
#225=DIRECTION('center_axis',(0.,0.,-1.));
#226=DIRECTION('ref_axis',(0.707106781186548,-0.707106781186547,0.));
#227=DIRECTION('',(0.,0.,-1.));
#228=DIRECTION('center_axis',(0.,0.,1.));
#229=DIRECTION('ref_axis',(0.707106781186548,-0.707106781186547,0.));
#230=DIRECTION('',(0.,0.,1.));
#231=DIRECTION('center_axis',(1.,5.84327907697451E-17,0.));
#232=DIRECTION('ref_axis',(0.,0.,-1.));
#233=DIRECTION('',(5.84327907697451E-17,-1.,0.));
#234=DIRECTION('',(0.,0.,-1.));
#235=DIRECTION('',(5.84327907697451E-17,-1.,0.));
#236=DIRECTION('center_axis',(0.,0.,1.));
#237=DIRECTION('ref_axis',(1.,0.,0.));
#238=DIRECTION('',(-1.,0.,0.));
#239=DIRECTION('center_axis',(0.,0.,1.));
#240=DIRECTION('ref_axis',(-0.707106781186548,-0.707106781186547,0.));
#241=DIRECTION('',(-1.75298372309235E-16,1.,0.));
#242=DIRECTION('center_axis',(0.,0.,1.));
#243=DIRECTION('ref_axis',(-0.707106781186548,0.707106781186548,0.));
#244=DIRECTION('',(1.,1.2335811384724E-16,0.));
#245=DIRECTION('center_axis',(0.,0.,1.));
#246=DIRECTION('ref_axis',(0.707106781186548,0.707106781186547,0.));
#247=DIRECTION('center_axis',(0.,0.,1.));
#248=DIRECTION('ref_axis',(0.707106781186548,0.707106781186547,0.));
#249=DIRECTION('center_axis',(0.,0.,-1.));
#250=DIRECTION('ref_axis',(0.707106781186548,0.707106781186547,0.));
#251=DIRECTION('',(0.,0.,1.));
#252=DIRECTION('center_axis',(-1.2335811384724E-16,1.,0.));
#253=DIRECTION('ref_axis',(0.,0.,1.));
#254=DIRECTION('',(0.,0.,-1.));
#255=DIRECTION('',(1.,1.2335811384724E-16,0.));
#256=DIRECTION('center_axis',(0.,0.,1.));
#257=DIRECTION('ref_axis',(-0.707106781186548,0.707106781186548,0.));
#258=DIRECTION('center_axis',(0.,0.,-1.));
#259=DIRECTION('ref_axis',(-0.707106781186548,0.707106781186548,0.));
#260=DIRECTION('',(0.,0.,1.));
#261=DIRECTION('center_axis',(-1.,-1.75298372309235E-16,0.));
#262=DIRECTION('ref_axis',(0.,0.,1.));
#263=DIRECTION('',(0.,0.,-1.));
#264=DIRECTION('',(-1.75298372309235E-16,1.,0.));
#265=DIRECTION('center_axis',(0.,0.,1.));
#266=DIRECTION('ref_axis',(-0.707106781186548,-0.707106781186547,0.));
#267=DIRECTION('center_axis',(0.,0.,-1.));
#268=DIRECTION('ref_axis',(-0.707106781186548,-0.707106781186547,0.));
#269=DIRECTION('',(0.,0.,1.));
#270=DIRECTION('center_axis',(0.,-1.,0.));
#271=DIRECTION('ref_axis',(0.,0.,-1.));
#272=DIRECTION('',(-1.,0.,0.));
#273=DIRECTION('center_axis',(0.,0.,1.));
#274=DIRECTION('ref_axis',(1.,0.,0.));
#275=CARTESIAN_POINT('',(0.,0.,0.));
#276=CARTESIAN_POINT('Origin',(14.,-34.,0.));
#277=CARTESIAN_POINT('',(18.,-34.,4.));
#278=CARTESIAN_POINT('',(14.,-38.,4.));
#279=CARTESIAN_POINT('Origin',(14.,-34.,4.));
#280=CARTESIAN_POINT('',(14.,-38.,0.));
#281=CARTESIAN_POINT('',(14.,-38.,0.));
#282=CARTESIAN_POINT('',(18.,-34.,0.));
#283=CARTESIAN_POINT('Origin',(14.,-34.,0.));
#284=CARTESIAN_POINT('',(18.,-34.,0.));
#285=CARTESIAN_POINT('Origin',(18.,38.,0.));
#286=CARTESIAN_POINT('',(18.,34.,0.));
#287=CARTESIAN_POINT('',(18.,38.,0.));
#288=CARTESIAN_POINT('',(18.,34.,4.));
#289=CARTESIAN_POINT('',(18.,34.,0.));
#290=CARTESIAN_POINT('',(18.,38.,4.));
#291=CARTESIAN_POINT('Origin',(1.11022302462516E-15,5.26274550634003E-15,
0.));
#292=CARTESIAN_POINT('',(-14.,-38.,0.));
#293=CARTESIAN_POINT('',(18.,-38.,0.));
#294=CARTESIAN_POINT('',(-18.,-34.,0.));
#295=CARTESIAN_POINT('Origin',(-14.,-34.,0.));
#296=CARTESIAN_POINT('',(-18.,34.,0.));
#297=CARTESIAN_POINT('',(-18.,-38.,0.));
#298=CARTESIAN_POINT('',(-14.,38.,0.));
#299=CARTESIAN_POINT('Origin',(-14.,34.,0.));
#300=CARTESIAN_POINT('',(14.,38.,0.));
#301=CARTESIAN_POINT('',(-18.,38.,0.));
#302=CARTESIAN_POINT('Origin',(14.,34.,0.));
#303=CARTESIAN_POINT('Origin',(14.,34.,0.));
#304=CARTESIAN_POINT('',(14.,38.,4.));
#305=CARTESIAN_POINT('Origin',(14.,34.,4.));
#306=CARTESIAN_POINT('',(14.,38.,0.));
#307=CARTESIAN_POINT('Origin',(-18.,38.,0.));
#308=CARTESIAN_POINT('',(-14.,38.,4.));
#309=CARTESIAN_POINT('',(-14.,38.,0.));
#310=CARTESIAN_POINT('',(-18.,38.,4.));
#311=CARTESIAN_POINT('Origin',(-14.,34.,0.));
#312=CARTESIAN_POINT('',(-18.,34.,4.));
#313=CARTESIAN_POINT('Origin',(-14.,34.,4.));
#314=CARTESIAN_POINT('',(-18.,34.,0.));
#315=CARTESIAN_POINT('Origin',(-18.,-38.,0.));
#316=CARTESIAN_POINT('',(-18.,-34.,4.));
#317=CARTESIAN_POINT('',(-18.,-34.,0.));
#318=CARTESIAN_POINT('',(-18.,-38.,4.));
#319=CARTESIAN_POINT('Origin',(-14.,-34.,0.));
#320=CARTESIAN_POINT('',(-14.,-38.,4.));
#321=CARTESIAN_POINT('Origin',(-14.,-34.,4.));
#322=CARTESIAN_POINT('',(-14.,-38.,0.));
#323=CARTESIAN_POINT('Origin',(18.,-38.,0.));
#324=CARTESIAN_POINT('',(18.,-38.,4.));
#325=CARTESIAN_POINT('Origin',(1.11022302462516E-15,5.79622929739367E-15,
4.));
#326=UNCERTAINTY_MEASURE_WITH_UNIT(LENGTH_MEASURE(0.01),#330,
'DISTANCE_ACCURACY_VALUE',
'Maximum model space distance between geometric entities at asserted c
onnectivities');
#327=UNCERTAINTY_MEASURE_WITH_UNIT(LENGTH_MEASURE(0.01),#330,
'DISTANCE_ACCURACY_VALUE',
'Maximum model space distance between geometric entities at asserted c
onnectivities');
#328=(
GEOMETRIC_REPRESENTATION_CONTEXT(3)
GLOBAL_UNCERTAINTY_ASSIGNED_CONTEXT((#326))
GLOBAL_UNIT_ASSIGNED_CONTEXT((#330,#333,#332))
REPRESENTATION_CONTEXT('','3D')
);
#329=(
GEOMETRIC_REPRESENTATION_CONTEXT(3)
GLOBAL_UNCERTAINTY_ASSIGNED_CONTEXT((#327))
GLOBAL_UNIT_ASSIGNED_CONTEXT((#330,#333,#332))
REPRESENTATION_CONTEXT('','3D')
);
#330=(
LENGTH_UNIT()
NAMED_UNIT(*)
SI_UNIT(.MILLI.,.METRE.)
);
#331=(
LENGTH_UNIT()
NAMED_UNIT(*)
SI_UNIT(.CENTI.,.METRE.)
);
#332=(
NAMED_UNIT(*)
SI_UNIT($,.STERADIAN.)
SOLID_ANGLE_UNIT()
);
#333=(
NAMED_UNIT(*)
PLANE_ANGLE_UNIT()
SI_UNIT($,.RADIAN.)
);
#334=SHAPE_DEFINITION_REPRESENTATION(#335,#336);
#335=PRODUCT_DEFINITION_SHAPE('',$,#338);
#336=SHAPE_REPRESENTATION('',(#202),#328);
#337=PRODUCT_DEFINITION_CONTEXT('part definition',#342,'design');
#338=PRODUCT_DEFINITION('319-20-09-29-16',
'319-20-09-29-16 Schlussplatte',#339,#337);
#339=PRODUCT_DEFINITION_FORMATION('',$,#344);
#340=PRODUCT_RELATED_PRODUCT_CATEGORY('319-20-09-29-16 Schlussplatte',
'319-20-09-29-16 Schlussplatte',(#344));
#341=APPLICATION_PROTOCOL_DEFINITION('international standard',
'automotive_design',2009,#342);
#342=APPLICATION_CONTEXT(
'Core Data for Automotive Mechanical Design Process');
#343=PRODUCT_CONTEXT('part definition',#342,'mechanical');
#344=PRODUCT('319-20-09-29-16','319-20-09-29-16 Schlussplatte',
'Schlussplatte',(#343));
#345=PRESENTATION_STYLE_ASSIGNMENT((#346));
#346=SURFACE_STYLE_USAGE(.BOTH.,#347);
#347=SURFACE_SIDE_STYLE('',(#348));
#348=SURFACE_STYLE_FILL_AREA(#349);
#349=FILL_AREA_STYLE('',(#350));
#350=FILL_AREA_STYLE_COLOUR('',#351);
#351=COLOUR_RGB('',0.749019607843137,0.749019607843137,0.749019607843137);
ENDSEC;
END-ISO-10303-21;
