ISO-10303-21;
HEADER;
/* Generated by software containing ST-Developer
 * from STEP Tools, Inc. (www.steptools.com) 
 */

FILE_DESCRIPTION(
/* description */ ('Strebe'),
/* implementation_level */ '2;1');

FILE_NAME(
/* name */ 
'Q:\\G200033  -  HBPO EQM V1_V3 - BMW FAAR_WE\\08 Konstruktion\\05 Z31
9-00\\319-20-00 Montagelinie V3\\319-20-09 VL3-080\\319-20-09-29-14 St
rebe.stp',
/* time_stamp */ '2021-03-10T13:38:03+01:00',
/* author */ ('herr_rommel'),
/* organization */ (''),
/* preprocessor_version */ 'ST-DEVELOPER v17',
/* originating_system */ 'Autodesk Inventor 2018',
/* authorisation */ '');

FILE_SCHEMA (('AUTOMOTIVE_DESIGN { 1 0 10303 214 3 1 1 }'));
ENDSEC;

DATA;
#10=MECHANICAL_DESIGN_GEOMETRIC_PRESENTATION_REPRESENTATION('',(#13),#552);
#11=SHAPE_REPRESENTATION_RELATIONSHIP('SRR','None',#559,#12);
#12=ADVANCED_BREP_SHAPE_REPRESENTATION('',(#14),#551);
#13=STYLED_ITEM('',(#568),#14);
#14=MANIFOLD_SOLID_BREP('Volumenk\X\F6rper2',#322);
#15=CYLINDRICAL_SURFACE('',#354,25.);
#16=CYLINDRICAL_SURFACE('',#364,2.05);
#17=CYLINDRICAL_SURFACE('',#365,2.05);
#18=CYLINDRICAL_SURFACE('',#366,2.05);
#19=CYLINDRICAL_SURFACE('',#367,2.05);
#20=FACE_BOUND('',#60,.T.);
#21=FACE_BOUND('',#61,.T.);
#22=FACE_BOUND('',#62,.T.);
#23=FACE_BOUND('',#63,.T.);
#24=FACE_BOUND('',#68,.T.);
#25=FACE_BOUND('',#69,.T.);
#26=FACE_BOUND('',#70,.T.);
#27=FACE_BOUND('',#71,.T.);
#28=CIRCLE('',#345,25.);
#29=CIRCLE('',#346,2.05);
#30=CIRCLE('',#347,2.05);
#31=CIRCLE('',#348,2.05);
#32=CIRCLE('',#349,2.05);
#33=CIRCLE('',#350,2.05);
#34=CIRCLE('',#351,2.05);
#35=CIRCLE('',#352,2.05);
#36=CIRCLE('',#353,2.05);
#37=CIRCLE('',#355,25.);
#38=CIRCLE('',#359,2.05);
#39=CIRCLE('',#360,2.05);
#40=CIRCLE('',#361,2.05);
#41=CIRCLE('',#362,2.05);
#42=FACE_OUTER_BOUND('',#57,.T.);
#43=FACE_OUTER_BOUND('',#58,.T.);
#44=FACE_OUTER_BOUND('',#59,.T.);
#45=FACE_OUTER_BOUND('',#64,.T.);
#46=FACE_OUTER_BOUND('',#65,.T.);
#47=FACE_OUTER_BOUND('',#66,.T.);
#48=FACE_OUTER_BOUND('',#67,.T.);
#49=FACE_OUTER_BOUND('',#72,.T.);
#50=FACE_OUTER_BOUND('',#73,.T.);
#51=FACE_OUTER_BOUND('',#74,.T.);
#52=FACE_OUTER_BOUND('',#75,.T.);
#53=FACE_OUTER_BOUND('',#76,.T.);
#54=FACE_OUTER_BOUND('',#77,.T.);
#55=FACE_OUTER_BOUND('',#78,.T.);
#56=FACE_OUTER_BOUND('',#79,.T.);
#57=EDGE_LOOP('',(#211,#212,#213,#214));
#58=EDGE_LOOP('',(#215,#216,#217,#218));
#59=EDGE_LOOP('',(#219,#220,#221,#222,#223,#224,#225,#226,#227));
#60=EDGE_LOOP('',(#228,#229));
#61=EDGE_LOOP('',(#230,#231));
#62=EDGE_LOOP('',(#232,#233));
#63=EDGE_LOOP('',(#234,#235));
#64=EDGE_LOOP('',(#236,#237,#238,#239));
#65=EDGE_LOOP('',(#240,#241,#242,#243));
#66=EDGE_LOOP('',(#244,#245,#246,#247));
#67=EDGE_LOOP('',(#248,#249,#250,#251,#252,#253,#254,#255,#256));
#68=EDGE_LOOP('',(#257));
#69=EDGE_LOOP('',(#258));
#70=EDGE_LOOP('',(#259));
#71=EDGE_LOOP('',(#260));
#72=EDGE_LOOP('',(#261,#262,#263,#264));
#73=EDGE_LOOP('',(#265,#266,#267,#268,#269));
#74=EDGE_LOOP('',(#270,#271,#272,#273,#274));
#75=EDGE_LOOP('',(#275,#276,#277,#278,#279));
#76=EDGE_LOOP('',(#280,#281,#282,#283,#284));
#77=EDGE_LOOP('',(#285,#286,#287,#288));
#78=EDGE_LOOP('',(#289,#290,#291,#292));
#79=EDGE_LOOP('',(#293,#294,#295,#296));
#80=LINE('',#464,#109);
#81=LINE('',#466,#110);
#82=LINE('',#468,#111);
#83=LINE('',#469,#112);
#84=LINE('',#472,#113);
#85=LINE('',#474,#114);
#86=LINE('',#475,#115);
#87=LINE('',#478,#116);
#88=LINE('',#480,#117);
#89=LINE('',#482,#118);
#90=LINE('',#484,#119);
#91=LINE('',#486,#120);
#92=LINE('',#488,#121);
#93=LINE('',#508,#122);
#94=LINE('',#512,#123);
#95=LINE('',#513,#124);
#96=LINE('',#516,#125);
#97=LINE('',#517,#126);
#98=LINE('',#520,#127);
#99=LINE('',#522,#128);
#100=LINE('',#524,#129);
#101=LINE('',#525,#130);
#102=LINE('',#535,#131);
#103=LINE('',#537,#132);
#104=LINE('',#539,#133);
#105=LINE('',#541,#134);
#106=LINE('',#543,#135);
#107=LINE('',#545,#136);
#108=LINE('',#547,#137);
#109=VECTOR('',#375,10.);
#110=VECTOR('',#376,10.);
#111=VECTOR('',#377,10.);
#112=VECTOR('',#378,10.);
#113=VECTOR('',#381,10.);
#114=VECTOR('',#382,10.);
#115=VECTOR('',#383,10.);
#116=VECTOR('',#386,10.);
#117=VECTOR('',#387,10.);
#118=VECTOR('',#388,10.);
#119=VECTOR('',#389,10.);
#120=VECTOR('',#390,10.);
#121=VECTOR('',#391,10.);
#122=VECTOR('',#412,10.);
#123=VECTOR('',#417,10.);
#124=VECTOR('',#418,10.);
#125=VECTOR('',#421,10.);
#126=VECTOR('',#422,10.);
#127=VECTOR('',#425,10.);
#128=VECTOR('',#426,10.);
#129=VECTOR('',#427,10.);
#130=VECTOR('',#428,10.);
#131=VECTOR('',#439,10.);
#132=VECTOR('',#442,2.05);
#133=VECTOR('',#445,2.05);
#134=VECTOR('',#448,2.05);
#135=VECTOR('',#451,2.05);
#136=VECTOR('',#454,10.);
#137=VECTOR('',#457,10.);
#138=VERTEX_POINT('',#462);
#139=VERTEX_POINT('',#463);
#140=VERTEX_POINT('',#465);
#141=VERTEX_POINT('',#467);
#142=VERTEX_POINT('',#471);
#143=VERTEX_POINT('',#473);
#144=VERTEX_POINT('',#477);
#145=VERTEX_POINT('',#479);
#146=VERTEX_POINT('',#481);
#147=VERTEX_POINT('',#483);
#148=VERTEX_POINT('',#485);
#149=VERTEX_POINT('',#487);
#150=VERTEX_POINT('',#490);
#151=VERTEX_POINT('',#491);
#152=VERTEX_POINT('',#494);
#153=VERTEX_POINT('',#495);
#154=VERTEX_POINT('',#498);
#155=VERTEX_POINT('',#499);
#156=VERTEX_POINT('',#502);
#157=VERTEX_POINT('',#503);
#158=VERTEX_POINT('',#507);
#159=VERTEX_POINT('',#511);
#160=VERTEX_POINT('',#515);
#161=VERTEX_POINT('',#519);
#162=VERTEX_POINT('',#521);
#163=VERTEX_POINT('',#523);
#164=VERTEX_POINT('',#526);
#165=VERTEX_POINT('',#528);
#166=VERTEX_POINT('',#530);
#167=VERTEX_POINT('',#532);
#168=EDGE_CURVE('',#138,#139,#80,.T.);
#169=EDGE_CURVE('',#139,#140,#81,.T.);
#170=EDGE_CURVE('',#140,#141,#82,.T.);
#171=EDGE_CURVE('',#141,#138,#83,.T.);
#172=EDGE_CURVE('',#139,#142,#84,.T.);
#173=EDGE_CURVE('',#143,#142,#85,.T.);
#174=EDGE_CURVE('',#140,#143,#86,.T.);
#175=EDGE_CURVE('',#144,#138,#87,.T.);
#176=EDGE_CURVE('',#145,#144,#88,.T.);
#177=EDGE_CURVE('',#146,#145,#89,.T.);
#178=EDGE_CURVE('',#147,#146,#90,.T.);
#179=EDGE_CURVE('',#148,#147,#91,.T.);
#180=EDGE_CURVE('',#149,#148,#92,.T.);
#181=EDGE_CURVE('',#142,#149,#28,.T.);
#182=EDGE_CURVE('',#150,#151,#29,.T.);
#183=EDGE_CURVE('',#151,#150,#30,.T.);
#184=EDGE_CURVE('',#152,#153,#31,.T.);
#185=EDGE_CURVE('',#153,#152,#32,.T.);
#186=EDGE_CURVE('',#154,#155,#33,.T.);
#187=EDGE_CURVE('',#155,#154,#34,.T.);
#188=EDGE_CURVE('',#156,#157,#35,.T.);
#189=EDGE_CURVE('',#157,#156,#36,.T.);
#190=EDGE_CURVE('',#149,#158,#93,.T.);
#191=EDGE_CURVE('',#158,#143,#37,.T.);
#192=EDGE_CURVE('',#159,#148,#94,.T.);
#193=EDGE_CURVE('',#159,#158,#95,.T.);
#194=EDGE_CURVE('',#147,#160,#96,.T.);
#195=EDGE_CURVE('',#160,#159,#97,.T.);
#196=EDGE_CURVE('',#161,#160,#98,.T.);
#197=EDGE_CURVE('',#161,#162,#99,.T.);
#198=EDGE_CURVE('',#162,#163,#100,.T.);
#199=EDGE_CURVE('',#163,#141,#101,.T.);
#200=EDGE_CURVE('',#164,#164,#38,.T.);
#201=EDGE_CURVE('',#165,#165,#39,.T.);
#202=EDGE_CURVE('',#166,#166,#40,.T.);
#203=EDGE_CURVE('',#167,#167,#41,.T.);
#204=EDGE_CURVE('',#161,#146,#102,.T.);
#205=EDGE_CURVE('',#157,#167,#103,.T.);
#206=EDGE_CURVE('',#155,#166,#104,.T.);
#207=EDGE_CURVE('',#153,#165,#105,.T.);
#208=EDGE_CURVE('',#151,#164,#106,.T.);
#209=EDGE_CURVE('',#163,#144,#107,.T.);
#210=EDGE_CURVE('',#162,#145,#108,.T.);
#211=ORIENTED_EDGE('',*,*,#168,.T.);
#212=ORIENTED_EDGE('',*,*,#169,.T.);
#213=ORIENTED_EDGE('',*,*,#170,.T.);
#214=ORIENTED_EDGE('',*,*,#171,.T.);
#215=ORIENTED_EDGE('',*,*,#169,.F.);
#216=ORIENTED_EDGE('',*,*,#172,.T.);
#217=ORIENTED_EDGE('',*,*,#173,.F.);
#218=ORIENTED_EDGE('',*,*,#174,.F.);
#219=ORIENTED_EDGE('',*,*,#168,.F.);
#220=ORIENTED_EDGE('',*,*,#175,.F.);
#221=ORIENTED_EDGE('',*,*,#176,.F.);
#222=ORIENTED_EDGE('',*,*,#177,.F.);
#223=ORIENTED_EDGE('',*,*,#178,.F.);
#224=ORIENTED_EDGE('',*,*,#179,.F.);
#225=ORIENTED_EDGE('',*,*,#180,.F.);
#226=ORIENTED_EDGE('',*,*,#181,.F.);
#227=ORIENTED_EDGE('',*,*,#172,.F.);
#228=ORIENTED_EDGE('',*,*,#182,.T.);
#229=ORIENTED_EDGE('',*,*,#183,.T.);
#230=ORIENTED_EDGE('',*,*,#184,.T.);
#231=ORIENTED_EDGE('',*,*,#185,.T.);
#232=ORIENTED_EDGE('',*,*,#186,.T.);
#233=ORIENTED_EDGE('',*,*,#187,.T.);
#234=ORIENTED_EDGE('',*,*,#188,.T.);
#235=ORIENTED_EDGE('',*,*,#189,.T.);
#236=ORIENTED_EDGE('',*,*,#181,.T.);
#237=ORIENTED_EDGE('',*,*,#190,.T.);
#238=ORIENTED_EDGE('',*,*,#191,.T.);
#239=ORIENTED_EDGE('',*,*,#173,.T.);
#240=ORIENTED_EDGE('',*,*,#190,.F.);
#241=ORIENTED_EDGE('',*,*,#180,.T.);
#242=ORIENTED_EDGE('',*,*,#192,.F.);
#243=ORIENTED_EDGE('',*,*,#193,.T.);
#244=ORIENTED_EDGE('',*,*,#179,.T.);
#245=ORIENTED_EDGE('',*,*,#194,.T.);
#246=ORIENTED_EDGE('',*,*,#195,.T.);
#247=ORIENTED_EDGE('',*,*,#192,.T.);
#248=ORIENTED_EDGE('',*,*,#170,.F.);
#249=ORIENTED_EDGE('',*,*,#174,.T.);
#250=ORIENTED_EDGE('',*,*,#191,.F.);
#251=ORIENTED_EDGE('',*,*,#193,.F.);
#252=ORIENTED_EDGE('',*,*,#195,.F.);
#253=ORIENTED_EDGE('',*,*,#196,.F.);
#254=ORIENTED_EDGE('',*,*,#197,.T.);
#255=ORIENTED_EDGE('',*,*,#198,.T.);
#256=ORIENTED_EDGE('',*,*,#199,.T.);
#257=ORIENTED_EDGE('',*,*,#200,.T.);
#258=ORIENTED_EDGE('',*,*,#201,.T.);
#259=ORIENTED_EDGE('',*,*,#202,.T.);
#260=ORIENTED_EDGE('',*,*,#203,.T.);
#261=ORIENTED_EDGE('',*,*,#194,.F.);
#262=ORIENTED_EDGE('',*,*,#178,.T.);
#263=ORIENTED_EDGE('',*,*,#204,.F.);
#264=ORIENTED_EDGE('',*,*,#196,.T.);
#265=ORIENTED_EDGE('',*,*,#188,.F.);
#266=ORIENTED_EDGE('',*,*,#189,.F.);
#267=ORIENTED_EDGE('',*,*,#205,.T.);
#268=ORIENTED_EDGE('',*,*,#203,.F.);
#269=ORIENTED_EDGE('',*,*,#205,.F.);
#270=ORIENTED_EDGE('',*,*,#186,.F.);
#271=ORIENTED_EDGE('',*,*,#187,.F.);
#272=ORIENTED_EDGE('',*,*,#206,.T.);
#273=ORIENTED_EDGE('',*,*,#202,.F.);
#274=ORIENTED_EDGE('',*,*,#206,.F.);
#275=ORIENTED_EDGE('',*,*,#184,.F.);
#276=ORIENTED_EDGE('',*,*,#185,.F.);
#277=ORIENTED_EDGE('',*,*,#207,.T.);
#278=ORIENTED_EDGE('',*,*,#201,.F.);
#279=ORIENTED_EDGE('',*,*,#207,.F.);
#280=ORIENTED_EDGE('',*,*,#182,.F.);
#281=ORIENTED_EDGE('',*,*,#183,.F.);
#282=ORIENTED_EDGE('',*,*,#208,.T.);
#283=ORIENTED_EDGE('',*,*,#200,.F.);
#284=ORIENTED_EDGE('',*,*,#208,.F.);
#285=ORIENTED_EDGE('',*,*,#171,.F.);
#286=ORIENTED_EDGE('',*,*,#199,.F.);
#287=ORIENTED_EDGE('',*,*,#209,.T.);
#288=ORIENTED_EDGE('',*,*,#175,.T.);
#289=ORIENTED_EDGE('',*,*,#177,.T.);
#290=ORIENTED_EDGE('',*,*,#210,.F.);
#291=ORIENTED_EDGE('',*,*,#197,.F.);
#292=ORIENTED_EDGE('',*,*,#204,.T.);
#293=ORIENTED_EDGE('',*,*,#176,.T.);
#294=ORIENTED_EDGE('',*,*,#209,.F.);
#295=ORIENTED_EDGE('',*,*,#198,.F.);
#296=ORIENTED_EDGE('',*,*,#210,.T.);
#297=PLANE('',#342);
#298=PLANE('',#343);
#299=PLANE('',#344);
#300=PLANE('',#356);
#301=PLANE('',#357);
#302=PLANE('',#358);
#303=PLANE('',#363);
#304=PLANE('',#368);
#305=PLANE('',#369);
#306=PLANE('',#370);
#307=ADVANCED_FACE('',(#42),#297,.T.);
#308=ADVANCED_FACE('',(#43),#298,.T.);
#309=ADVANCED_FACE('',(#44,#20,#21,#22,#23),#299,.T.);
#310=ADVANCED_FACE('',(#45),#15,.F.);
#311=ADVANCED_FACE('',(#46),#300,.T.);
#312=ADVANCED_FACE('',(#47),#301,.T.);
#313=ADVANCED_FACE('',(#48,#24,#25,#26,#27),#302,.F.);
#314=ADVANCED_FACE('',(#49),#303,.T.);
#315=ADVANCED_FACE('',(#50),#16,.F.);
#316=ADVANCED_FACE('',(#51),#17,.F.);
#317=ADVANCED_FACE('',(#52),#18,.F.);
#318=ADVANCED_FACE('',(#53),#19,.F.);
#319=ADVANCED_FACE('',(#54),#304,.T.);
#320=ADVANCED_FACE('',(#55),#305,.T.);
#321=ADVANCED_FACE('',(#56),#306,.T.);
#322=CLOSED_SHELL('',(#307,#308,#309,#310,#311,#312,#313,#314,#315,#316,
#317,#318,#319,#320,#321));
#323=DERIVED_UNIT_ELEMENT(#325,1.);
#324=DERIVED_UNIT_ELEMENT(#554,3.);
#325=(
MASS_UNIT()
NAMED_UNIT(*)
SI_UNIT($,.GRAM.)
);
#326=DERIVED_UNIT((#323,#324));
#327=MEASURE_REPRESENTATION_ITEM('density measure',
POSITIVE_RATIO_MEASURE(2.7),#326);
#328=PROPERTY_DEFINITION_REPRESENTATION(#333,#330);
#329=PROPERTY_DEFINITION_REPRESENTATION(#334,#331);
#330=REPRESENTATION('material name',(#332),#551);
#331=REPRESENTATION('density',(#327),#551);
#332=DESCRIPTIVE_REPRESENTATION_ITEM('AlMgSi1','AlMgSi1');
#333=PROPERTY_DEFINITION('material property','material name',#561);
#334=PROPERTY_DEFINITION('material property','density of part',#561);
#335=DATE_TIME_ROLE('creation_date');
#336=APPLIED_DATE_AND_TIME_ASSIGNMENT(#337,#335,(#561));
#337=DATE_AND_TIME(#338,#339);
#338=CALENDAR_DATE(2021,12,2);
#339=LOCAL_TIME(14,25,38.,#340);
#340=COORDINATED_UNIVERSAL_TIME_OFFSET(0,0,.BEHIND.);
#341=AXIS2_PLACEMENT_3D('placement',#460,#371,#372);
#342=AXIS2_PLACEMENT_3D('',#461,#373,#374);
#343=AXIS2_PLACEMENT_3D('',#470,#379,#380);
#344=AXIS2_PLACEMENT_3D('',#476,#384,#385);
#345=AXIS2_PLACEMENT_3D('',#489,#392,#393);
#346=AXIS2_PLACEMENT_3D('',#492,#394,#395);
#347=AXIS2_PLACEMENT_3D('',#493,#396,#397);
#348=AXIS2_PLACEMENT_3D('',#496,#398,#399);
#349=AXIS2_PLACEMENT_3D('',#497,#400,#401);
#350=AXIS2_PLACEMENT_3D('',#500,#402,#403);
#351=AXIS2_PLACEMENT_3D('',#501,#404,#405);
#352=AXIS2_PLACEMENT_3D('',#504,#406,#407);
#353=AXIS2_PLACEMENT_3D('',#505,#408,#409);
#354=AXIS2_PLACEMENT_3D('',#506,#410,#411);
#355=AXIS2_PLACEMENT_3D('',#509,#413,#414);
#356=AXIS2_PLACEMENT_3D('',#510,#415,#416);
#357=AXIS2_PLACEMENT_3D('',#514,#419,#420);
#358=AXIS2_PLACEMENT_3D('',#518,#423,#424);
#359=AXIS2_PLACEMENT_3D('',#527,#429,#430);
#360=AXIS2_PLACEMENT_3D('',#529,#431,#432);
#361=AXIS2_PLACEMENT_3D('',#531,#433,#434);
#362=AXIS2_PLACEMENT_3D('',#533,#435,#436);
#363=AXIS2_PLACEMENT_3D('',#534,#437,#438);
#364=AXIS2_PLACEMENT_3D('',#536,#440,#441);
#365=AXIS2_PLACEMENT_3D('',#538,#443,#444);
#366=AXIS2_PLACEMENT_3D('',#540,#446,#447);
#367=AXIS2_PLACEMENT_3D('',#542,#449,#450);
#368=AXIS2_PLACEMENT_3D('',#544,#452,#453);
#369=AXIS2_PLACEMENT_3D('',#546,#455,#456);
#370=AXIS2_PLACEMENT_3D('',#548,#458,#459);
#371=DIRECTION('axis',(0.,0.,1.));
#372=DIRECTION('refdir',(1.,0.,0.));
#373=DIRECTION('center_axis',(0.707106781186548,0.707106781186548,0.));
#374=DIRECTION('ref_axis',(0.,0.,-1.));
#375=DIRECTION('',(0.707106781186548,-0.707106781186548,0.));
#376=DIRECTION('',(0.,0.,-1.));
#377=DIRECTION('',(-0.707106781186548,0.707106781186548,0.));
#378=DIRECTION('',(0.,0.,1.));
#379=DIRECTION('center_axis',(1.,1.11022302462516E-16,0.));
#380=DIRECTION('ref_axis',(0.,0.,-1.));
#381=DIRECTION('',(1.11022302462516E-16,-1.,0.));
#382=DIRECTION('',(0.,0.,1.));
#383=DIRECTION('',(1.11022302462516E-16,-1.,0.));
#384=DIRECTION('center_axis',(0.,0.,1.));
#385=DIRECTION('ref_axis',(1.,0.,0.));
#386=DIRECTION('',(1.,0.,0.));
#387=DIRECTION('',(0.,1.,0.));
#388=DIRECTION('',(-1.,-1.22464679914735E-16,0.));
#389=DIRECTION('',(5.07530525542929E-16,-1.,0.));
#390=DIRECTION('',(0.707106781186548,-0.707106781186548,0.));
#391=DIRECTION('',(1.,0.,0.));
#392=DIRECTION('center_axis',(0.,0.,1.));
#393=DIRECTION('ref_axis',(-0.707106781186548,-0.707106781186547,0.));
#394=DIRECTION('center_axis',(0.,0.,-1.));
#395=DIRECTION('ref_axis',(1.,0.,0.));
#396=DIRECTION('center_axis',(0.,0.,-1.));
#397=DIRECTION('ref_axis',(1.,0.,0.));
#398=DIRECTION('center_axis',(0.,0.,-1.));
#399=DIRECTION('ref_axis',(1.,0.,0.));
#400=DIRECTION('center_axis',(0.,0.,-1.));
#401=DIRECTION('ref_axis',(1.,0.,0.));
#402=DIRECTION('center_axis',(0.,0.,-1.));
#403=DIRECTION('ref_axis',(1.,0.,0.));
#404=DIRECTION('center_axis',(0.,0.,-1.));
#405=DIRECTION('ref_axis',(1.,0.,0.));
#406=DIRECTION('center_axis',(0.,0.,-1.));
#407=DIRECTION('ref_axis',(1.,0.,0.));
#408=DIRECTION('center_axis',(0.,0.,-1.));
#409=DIRECTION('ref_axis',(1.,0.,0.));
#410=DIRECTION('center_axis',(0.,0.,-1.));
#411=DIRECTION('ref_axis',(-0.707106781186548,-0.707106781186547,0.));
#412=DIRECTION('',(0.,0.,-1.));
#413=DIRECTION('center_axis',(0.,0.,-1.));
#414=DIRECTION('ref_axis',(-0.707106781186548,-0.707106781186547,0.));
#415=DIRECTION('center_axis',(0.,1.,0.));
#416=DIRECTION('ref_axis',(0.,0.,1.));
#417=DIRECTION('',(0.,0.,1.));
#418=DIRECTION('',(-1.,0.,0.));
#419=DIRECTION('center_axis',(0.707106781186548,0.707106781186548,0.));
#420=DIRECTION('ref_axis',(0.,0.,-1.));
#421=DIRECTION('',(0.,0.,-1.));
#422=DIRECTION('',(-0.707106781186548,0.707106781186548,0.));
#423=DIRECTION('center_axis',(0.,0.,1.));
#424=DIRECTION('ref_axis',(1.,0.,0.));
#425=DIRECTION('',(-5.07530525542929E-16,1.,0.));
#426=DIRECTION('',(-1.,-1.22464679914735E-16,0.));
#427=DIRECTION('',(0.,1.,0.));
#428=DIRECTION('',(1.,0.,0.));
#429=DIRECTION('center_axis',(0.,0.,1.));
#430=DIRECTION('ref_axis',(1.,0.,0.));
#431=DIRECTION('center_axis',(0.,0.,1.));
#432=DIRECTION('ref_axis',(1.,0.,0.));
#433=DIRECTION('center_axis',(0.,0.,1.));
#434=DIRECTION('ref_axis',(1.,0.,0.));
#435=DIRECTION('center_axis',(0.,0.,1.));
#436=DIRECTION('ref_axis',(1.,0.,0.));
#437=DIRECTION('center_axis',(1.,5.07530525542929E-16,0.));
#438=DIRECTION('ref_axis',(0.,0.,-1.));
#439=DIRECTION('',(0.,0.,1.));
#440=DIRECTION('center_axis',(0.,0.,1.));
#441=DIRECTION('ref_axis',(1.,0.,0.));
#442=DIRECTION('',(0.,0.,-1.));
#443=DIRECTION('center_axis',(0.,0.,1.));
#444=DIRECTION('ref_axis',(1.,0.,0.));
#445=DIRECTION('',(0.,0.,-1.));
#446=DIRECTION('center_axis',(0.,0.,1.));
#447=DIRECTION('ref_axis',(1.,0.,0.));
#448=DIRECTION('',(0.,0.,-1.));
#449=DIRECTION('center_axis',(0.,0.,1.));
#450=DIRECTION('ref_axis',(1.,0.,0.));
#451=DIRECTION('',(0.,0.,-1.));
#452=DIRECTION('center_axis',(0.,1.,0.));
#453=DIRECTION('ref_axis',(0.,0.,1.));
#454=DIRECTION('',(0.,0.,1.));
#455=DIRECTION('center_axis',(1.22464679914735E-16,-1.,0.));
#456=DIRECTION('ref_axis',(0.,0.,-1.));
#457=DIRECTION('',(0.,0.,1.));
#458=DIRECTION('center_axis',(-1.,0.,0.));
#459=DIRECTION('ref_axis',(0.,0.,1.));
#460=CARTESIAN_POINT('',(0.,0.,0.));
#461=CARTESIAN_POINT('Origin',(20.,195.,0.));
#462=CARTESIAN_POINT('',(15.,200.,10.));
#463=CARTESIAN_POINT('',(25.,190.,10.));
#464=CARTESIAN_POINT('',(41.875,173.125,10.));
#465=CARTESIAN_POINT('',(25.,190.,0.));
#466=CARTESIAN_POINT('',(25.,190.,0.));
#467=CARTESIAN_POINT('',(15.,200.,0.));
#468=CARTESIAN_POINT('',(41.875,173.125,0.));
#469=CARTESIAN_POINT('',(15.,200.,0.));
#470=CARTESIAN_POINT('Origin',(25.,200.,0.));
#471=CARTESIAN_POINT('',(25.,60.,10.));
#472=CARTESIAN_POINT('',(25.,200.,10.));
#473=CARTESIAN_POINT('',(25.,60.,0.));
#474=CARTESIAN_POINT('',(25.,60.,0.));
#475=CARTESIAN_POINT('',(25.,200.,0.));
#476=CARTESIAN_POINT('Origin',(12.5,100.,10.));
#477=CARTESIAN_POINT('',(0.,200.,10.));
#478=CARTESIAN_POINT('',(0.,200.,10.));
#479=CARTESIAN_POINT('',(0.,0.,10.));
#480=CARTESIAN_POINT('',(0.,0.,10.));
#481=CARTESIAN_POINT('',(160.,-3.94430452610506E-30,10.));
#482=CARTESIAN_POINT('',(25.,3.06161699786838E-15,10.));
#483=CARTESIAN_POINT('',(160.,25.,10.));
#484=CARTESIAN_POINT('',(160.,-3.94430452610506E-30,10.));
#485=CARTESIAN_POINT('',(150.,35.,10.));
#486=CARTESIAN_POINT('',(101.875,83.125,10.));
#487=CARTESIAN_POINT('',(50.,35.,10.));
#488=CARTESIAN_POINT('',(160.,35.,10.));
#489=CARTESIAN_POINT('Origin',(50.,60.,10.));
#490=CARTESIAN_POINT('',(107.05,25.,10.));
#491=CARTESIAN_POINT('',(102.95,25.,10.));
#492=CARTESIAN_POINT('Origin',(105.,25.,10.));
#493=CARTESIAN_POINT('Origin',(105.,25.,10.));
#494=CARTESIAN_POINT('',(17.05,95.,10.));
#495=CARTESIAN_POINT('',(12.95,95.,10.));
#496=CARTESIAN_POINT('Origin',(15.,95.,10.));
#497=CARTESIAN_POINT('Origin',(15.,95.,10.));
#498=CARTESIAN_POINT('',(17.05,185.,10.));
#499=CARTESIAN_POINT('',(12.95,185.,10.));
#500=CARTESIAN_POINT('Origin',(15.,185.,10.));
#501=CARTESIAN_POINT('Origin',(15.,185.,10.));
#502=CARTESIAN_POINT('',(57.05,25.,10.));
#503=CARTESIAN_POINT('',(52.95,25.,10.));
#504=CARTESIAN_POINT('Origin',(55.,25.,10.));
#505=CARTESIAN_POINT('Origin',(55.,25.,10.));
#506=CARTESIAN_POINT('Origin',(50.,60.,0.));
#507=CARTESIAN_POINT('',(50.,35.,0.));
#508=CARTESIAN_POINT('',(50.,35.,0.));
#509=CARTESIAN_POINT('Origin',(50.,60.,0.));
#510=CARTESIAN_POINT('Origin',(-1.77635683940025E-14,35.,0.));
#511=CARTESIAN_POINT('',(150.,35.,0.));
#512=CARTESIAN_POINT('',(150.,35.,0.));
#513=CARTESIAN_POINT('',(160.,35.,0.));
#514=CARTESIAN_POINT('Origin',(155.,30.,0.));
#515=CARTESIAN_POINT('',(160.,25.,0.));
#516=CARTESIAN_POINT('',(160.,25.,0.));
#517=CARTESIAN_POINT('',(101.875,83.125,0.));
#518=CARTESIAN_POINT('Origin',(12.5,100.,0.));
#519=CARTESIAN_POINT('',(160.,-3.94430452610506E-30,0.));
#520=CARTESIAN_POINT('',(160.,-3.94430452610506E-30,0.));
#521=CARTESIAN_POINT('',(0.,0.,0.));
#522=CARTESIAN_POINT('',(25.,3.06161699786838E-15,0.));
#523=CARTESIAN_POINT('',(0.,200.,0.));
#524=CARTESIAN_POINT('',(0.,0.,0.));
#525=CARTESIAN_POINT('',(0.,200.,0.));
#526=CARTESIAN_POINT('',(102.95,25.,0.));
#527=CARTESIAN_POINT('Origin',(105.,25.,0.));
#528=CARTESIAN_POINT('',(12.95,95.,0.));
#529=CARTESIAN_POINT('Origin',(15.,95.,0.));
#530=CARTESIAN_POINT('',(12.95,185.,0.));
#531=CARTESIAN_POINT('Origin',(15.,185.,0.));
#532=CARTESIAN_POINT('',(52.95,25.,0.));
#533=CARTESIAN_POINT('Origin',(55.,25.,0.));
#534=CARTESIAN_POINT('Origin',(160.,35.,0.));
#535=CARTESIAN_POINT('',(160.,-3.94430452610506E-30,0.));
#536=CARTESIAN_POINT('Origin',(55.,25.,-246.320112359526));
#537=CARTESIAN_POINT('',(52.95,25.,-246.320112359526));
#538=CARTESIAN_POINT('Origin',(15.,185.,-246.320112359526));
#539=CARTESIAN_POINT('',(12.95,185.,-246.320112359526));
#540=CARTESIAN_POINT('Origin',(15.,95.,-246.320112359526));
#541=CARTESIAN_POINT('',(12.95,95.,-246.320112359526));
#542=CARTESIAN_POINT('Origin',(105.,25.,-246.320112359526));
#543=CARTESIAN_POINT('',(102.95,25.,-246.320112359526));
#544=CARTESIAN_POINT('Origin',(0.,200.,0.));
#545=CARTESIAN_POINT('',(0.,200.,0.));
#546=CARTESIAN_POINT('Origin',(25.,3.06161699786838E-15,0.));
#547=CARTESIAN_POINT('',(0.,0.,0.));
#548=CARTESIAN_POINT('Origin',(0.,0.,0.));
#549=UNCERTAINTY_MEASURE_WITH_UNIT(LENGTH_MEASURE(0.01),#553,
'DISTANCE_ACCURACY_VALUE',
'Maximum model space distance between geometric entities at asserted c
onnectivities');
#550=UNCERTAINTY_MEASURE_WITH_UNIT(LENGTH_MEASURE(0.01),#553,
'DISTANCE_ACCURACY_VALUE',
'Maximum model space distance between geometric entities at asserted c
onnectivities');
#551=(
GEOMETRIC_REPRESENTATION_CONTEXT(3)
GLOBAL_UNCERTAINTY_ASSIGNED_CONTEXT((#549))
GLOBAL_UNIT_ASSIGNED_CONTEXT((#553,#556,#555))
REPRESENTATION_CONTEXT('','3D')
);
#552=(
GEOMETRIC_REPRESENTATION_CONTEXT(3)
GLOBAL_UNCERTAINTY_ASSIGNED_CONTEXT((#550))
GLOBAL_UNIT_ASSIGNED_CONTEXT((#553,#556,#555))
REPRESENTATION_CONTEXT('','3D')
);
#553=(
LENGTH_UNIT()
NAMED_UNIT(*)
SI_UNIT(.MILLI.,.METRE.)
);
#554=(
LENGTH_UNIT()
NAMED_UNIT(*)
SI_UNIT(.CENTI.,.METRE.)
);
#555=(
NAMED_UNIT(*)
SI_UNIT($,.STERADIAN.)
SOLID_ANGLE_UNIT()
);
#556=(
NAMED_UNIT(*)
PLANE_ANGLE_UNIT()
SI_UNIT($,.RADIAN.)
);
#557=SHAPE_DEFINITION_REPRESENTATION(#558,#559);
#558=PRODUCT_DEFINITION_SHAPE('',$,#561);
#559=SHAPE_REPRESENTATION('',(#341),#551);
#560=PRODUCT_DEFINITION_CONTEXT('part definition',#565,'design');
#561=PRODUCT_DEFINITION('319-20-09-29-14','319-20-09-29-14 Strebe',#562,
#560);
#562=PRODUCT_DEFINITION_FORMATION('',$,#567);
#563=PRODUCT_RELATED_PRODUCT_CATEGORY('319-20-09-29-14 Strebe',
'319-20-09-29-14 Strebe',(#567));
#564=APPLICATION_PROTOCOL_DEFINITION('international standard',
'automotive_design',2009,#565);
#565=APPLICATION_CONTEXT(
'Core Data for Automotive Mechanical Design Process');
#566=PRODUCT_CONTEXT('part definition',#565,'mechanical');
#567=PRODUCT('319-20-09-29-14','319-20-09-29-14 Strebe','Strebe',(#566));
#568=PRESENTATION_STYLE_ASSIGNMENT((#569));
#569=SURFACE_STYLE_USAGE(.BOTH.,#570);
#570=SURFACE_SIDE_STYLE('',(#571));
#571=SURFACE_STYLE_FILL_AREA(#572);
#572=FILL_AREA_STYLE('',(#573));
#573=FILL_AREA_STYLE_COLOUR('',#574);
#574=COLOUR_RGB('',0.749019607843137,0.749019607843137,0.749019607843137);
ENDSEC;
END-ISO-10303-21;
