ISO-10303-21;
HEADER;
/* Generated by software containing ST-Developer
 * from STEP Tools, Inc. (www.steptools.com) 
 */

FILE_DESCRIPTION(
/* description */ ('Montageplatte'),
/* implementation_level */ '2;1');

FILE_NAME(
/* name */ 
'Q:\\G200033  -  HBPO EQM V1_V3 - BMW FAAR_WE\\08 Konstruktion\\05 Z31
9-00\\319-20-00 Montagelinie V3\\319-20-09 VL3-080\\319-20-09-29-06 Mo
ntageplatte.stp',
/* time_stamp */ '2021-03-10T12:46:59+01:00',
/* author */ ('herr_rommel'),
/* organization */ (''),
/* preprocessor_version */ 'ST-DEVELOPER v17',
/* originating_system */ 'Autodesk Inventor 2018',
/* authorisation */ '');

FILE_SCHEMA (('AUTOMOTIVE_DESIGN { 1 0 10303 214 3 1 1 }'));
ENDSEC;

DATA;
#10=MECHANICAL_DESIGN_GEOMETRIC_PRESENTATION_REPRESENTATION('',(#13),#439);
#11=SHAPE_REPRESENTATION_RELATIONSHIP('SRR','None',#446,#12);
#12=ADVANCED_BREP_SHAPE_REPRESENTATION('',(#14),#438);
#13=STYLED_ITEM('',(#455),#14);
#14=MANIFOLD_SOLID_BREP('Volumenk\X\F6rper1',#259);
#15=CIRCLE('',#285,10.);
#16=CIRCLE('',#286,10.);
#17=PLANE('',#282);
#18=PLANE('',#283);
#19=PLANE('',#287);
#20=PLANE('',#288);
#21=PLANE('',#289);
#22=PLANE('',#290);
#23=PLANE('',#291);
#24=PLANE('',#292);
#25=PLANE('',#293);
#26=PLANE('',#294);
#27=PLANE('',#295);
#28=PLANE('',#296);
#29=FACE_OUTER_BOUND('',#43,.T.);
#30=FACE_OUTER_BOUND('',#44,.T.);
#31=FACE_OUTER_BOUND('',#45,.T.);
#32=FACE_OUTER_BOUND('',#46,.T.);
#33=FACE_OUTER_BOUND('',#47,.T.);
#34=FACE_OUTER_BOUND('',#48,.T.);
#35=FACE_OUTER_BOUND('',#49,.T.);
#36=FACE_OUTER_BOUND('',#50,.T.);
#37=FACE_OUTER_BOUND('',#51,.T.);
#38=FACE_OUTER_BOUND('',#52,.T.);
#39=FACE_OUTER_BOUND('',#53,.T.);
#40=FACE_OUTER_BOUND('',#54,.T.);
#41=FACE_OUTER_BOUND('',#55,.T.);
#42=FACE_OUTER_BOUND('',#56,.T.);
#43=EDGE_LOOP('',(#175,#176,#177,#178));
#44=EDGE_LOOP('',(#179,#180,#181,#182));
#45=EDGE_LOOP('',(#183,#184,#185,#186));
#46=EDGE_LOOP('',(#187,#188,#189,#190));
#47=EDGE_LOOP('',(#191,#192,#193,#194,#195,#196,#197));
#48=EDGE_LOOP('',(#198,#199,#200,#201));
#49=EDGE_LOOP('',(#202,#203,#204,#205,#206,#207,#208));
#50=EDGE_LOOP('',(#209,#210,#211,#212));
#51=EDGE_LOOP('',(#213,#214,#215,#216,#217,#218));
#52=EDGE_LOOP('',(#219,#220,#221,#222));
#53=EDGE_LOOP('',(#223,#224,#225,#226));
#54=EDGE_LOOP('',(#227,#228,#229,#230));
#55=EDGE_LOOP('',(#231,#232,#233,#234,#235,#236));
#56=EDGE_LOOP('',(#237,#238,#239,#240,#241,#242));
#57=LINE('',#371,#87);
#58=LINE('',#374,#88);
#59=LINE('',#377,#89);
#60=LINE('',#379,#90);
#61=LINE('',#380,#91);
#62=LINE('',#383,#92);
#63=LINE('',#385,#93);
#64=LINE('',#386,#94);
#65=LINE('',#392,#95);
#66=LINE('',#395,#96);
#67=LINE('',#397,#97);
#68=LINE('',#399,#98);
#69=LINE('',#400,#99);
#70=LINE('',#403,#100);
#71=LINE('',#405,#101);
#72=LINE('',#406,#102);
#73=LINE('',#409,#103);
#74=LINE('',#411,#104);
#75=LINE('',#413,#105);
#76=LINE('',#414,#106);
#77=LINE('',#417,#107);
#78=LINE('',#419,#108);
#79=LINE('',#420,#109);
#80=LINE('',#423,#110);
#81=LINE('',#424,#111);
#82=LINE('',#425,#112);
#83=LINE('',#428,#113);
#84=LINE('',#429,#114);
#85=LINE('',#431,#115);
#86=LINE('',#433,#116);
#87=VECTOR('',#303,10.);
#88=VECTOR('',#306,10.);
#89=VECTOR('',#309,10.);
#90=VECTOR('',#310,10.);
#91=VECTOR('',#311,10.);
#92=VECTOR('',#314,10.);
#93=VECTOR('',#315,10.);
#94=VECTOR('',#316,10.);
#95=VECTOR('',#323,10.);
#96=VECTOR('',#326,10.);
#97=VECTOR('',#327,10.);
#98=VECTOR('',#328,10.);
#99=VECTOR('',#329,10.);
#100=VECTOR('',#332,10.);
#101=VECTOR('',#333,10.);
#102=VECTOR('',#334,10.);
#103=VECTOR('',#337,10.);
#104=VECTOR('',#338,10.);
#105=VECTOR('',#339,10.);
#106=VECTOR('',#340,10.);
#107=VECTOR('',#343,10.);
#108=VECTOR('',#344,10.);
#109=VECTOR('',#345,10.);
#110=VECTOR('',#348,10.);
#111=VECTOR('',#349,10.);
#112=VECTOR('',#350,10.);
#113=VECTOR('',#353,10.);
#114=VECTOR('',#354,10.);
#115=VECTOR('',#357,10.);
#116=VECTOR('',#360,10.);
#117=ELLIPSE('',#280,2.82842712474619,2.);
#118=ELLIPSE('',#281,2.82842712474619,2.);
#119=VERTEX_POINT('',#367);
#120=VERTEX_POINT('',#368);
#121=VERTEX_POINT('',#370);
#122=VERTEX_POINT('',#372);
#123=VERTEX_POINT('',#376);
#124=VERTEX_POINT('',#378);
#125=VERTEX_POINT('',#382);
#126=VERTEX_POINT('',#384);
#127=VERTEX_POINT('',#388);
#128=VERTEX_POINT('',#390);
#129=VERTEX_POINT('',#394);
#130=VERTEX_POINT('',#396);
#131=VERTEX_POINT('',#398);
#132=VERTEX_POINT('',#402);
#133=VERTEX_POINT('',#404);
#134=VERTEX_POINT('',#408);
#135=VERTEX_POINT('',#410);
#136=VERTEX_POINT('',#412);
#137=VERTEX_POINT('',#416);
#138=VERTEX_POINT('',#418);
#139=VERTEX_POINT('',#422);
#140=VERTEX_POINT('',#427);
#141=EDGE_CURVE('',#119,#120,#117,.T.);
#142=EDGE_CURVE('',#120,#121,#57,.T.);
#143=EDGE_CURVE('',#121,#122,#118,.T.);
#144=EDGE_CURVE('',#122,#119,#58,.T.);
#145=EDGE_CURVE('',#119,#123,#59,.T.);
#146=EDGE_CURVE('',#123,#124,#60,.T.);
#147=EDGE_CURVE('',#124,#120,#61,.T.);
#148=EDGE_CURVE('',#125,#122,#62,.T.);
#149=EDGE_CURVE('',#126,#125,#63,.T.);
#150=EDGE_CURVE('',#126,#119,#64,.T.);
#151=EDGE_CURVE('',#127,#126,#15,.T.);
#152=EDGE_CURVE('',#125,#128,#16,.T.);
#153=EDGE_CURVE('',#128,#127,#65,.T.);
#154=EDGE_CURVE('',#129,#127,#66,.T.);
#155=EDGE_CURVE('',#130,#129,#67,.T.);
#156=EDGE_CURVE('',#131,#130,#68,.T.);
#157=EDGE_CURVE('',#131,#123,#69,.T.);
#158=EDGE_CURVE('',#121,#132,#70,.T.);
#159=EDGE_CURVE('',#132,#133,#71,.T.);
#160=EDGE_CURVE('',#133,#122,#72,.T.);
#161=EDGE_CURVE('',#133,#134,#73,.T.);
#162=EDGE_CURVE('',#135,#134,#74,.T.);
#163=EDGE_CURVE('',#136,#135,#75,.T.);
#164=EDGE_CURVE('',#128,#136,#76,.T.);
#165=EDGE_CURVE('',#137,#130,#77,.T.);
#166=EDGE_CURVE('',#129,#138,#78,.T.);
#167=EDGE_CURVE('',#138,#137,#79,.T.);
#168=EDGE_CURVE('',#137,#139,#80,.T.);
#169=EDGE_CURVE('',#135,#139,#81,.T.);
#170=EDGE_CURVE('',#134,#131,#82,.T.);
#171=EDGE_CURVE('',#139,#140,#83,.T.);
#172=EDGE_CURVE('',#140,#136,#84,.T.);
#173=EDGE_CURVE('',#124,#132,#85,.T.);
#174=EDGE_CURVE('',#140,#138,#86,.T.);
#175=ORIENTED_EDGE('',*,*,#141,.T.);
#176=ORIENTED_EDGE('',*,*,#142,.T.);
#177=ORIENTED_EDGE('',*,*,#143,.T.);
#178=ORIENTED_EDGE('',*,*,#144,.T.);
#179=ORIENTED_EDGE('',*,*,#141,.F.);
#180=ORIENTED_EDGE('',*,*,#145,.T.);
#181=ORIENTED_EDGE('',*,*,#146,.T.);
#182=ORIENTED_EDGE('',*,*,#147,.T.);
#183=ORIENTED_EDGE('',*,*,#144,.F.);
#184=ORIENTED_EDGE('',*,*,#148,.F.);
#185=ORIENTED_EDGE('',*,*,#149,.F.);
#186=ORIENTED_EDGE('',*,*,#150,.T.);
#187=ORIENTED_EDGE('',*,*,#151,.T.);
#188=ORIENTED_EDGE('',*,*,#149,.T.);
#189=ORIENTED_EDGE('',*,*,#152,.T.);
#190=ORIENTED_EDGE('',*,*,#153,.T.);
#191=ORIENTED_EDGE('',*,*,#145,.F.);
#192=ORIENTED_EDGE('',*,*,#150,.F.);
#193=ORIENTED_EDGE('',*,*,#151,.F.);
#194=ORIENTED_EDGE('',*,*,#154,.F.);
#195=ORIENTED_EDGE('',*,*,#155,.F.);
#196=ORIENTED_EDGE('',*,*,#156,.F.);
#197=ORIENTED_EDGE('',*,*,#157,.T.);
#198=ORIENTED_EDGE('',*,*,#143,.F.);
#199=ORIENTED_EDGE('',*,*,#158,.T.);
#200=ORIENTED_EDGE('',*,*,#159,.T.);
#201=ORIENTED_EDGE('',*,*,#160,.T.);
#202=ORIENTED_EDGE('',*,*,#160,.F.);
#203=ORIENTED_EDGE('',*,*,#161,.T.);
#204=ORIENTED_EDGE('',*,*,#162,.F.);
#205=ORIENTED_EDGE('',*,*,#163,.F.);
#206=ORIENTED_EDGE('',*,*,#164,.F.);
#207=ORIENTED_EDGE('',*,*,#152,.F.);
#208=ORIENTED_EDGE('',*,*,#148,.T.);
#209=ORIENTED_EDGE('',*,*,#165,.T.);
#210=ORIENTED_EDGE('',*,*,#155,.T.);
#211=ORIENTED_EDGE('',*,*,#166,.T.);
#212=ORIENTED_EDGE('',*,*,#167,.T.);
#213=ORIENTED_EDGE('',*,*,#165,.F.);
#214=ORIENTED_EDGE('',*,*,#168,.T.);
#215=ORIENTED_EDGE('',*,*,#169,.F.);
#216=ORIENTED_EDGE('',*,*,#162,.T.);
#217=ORIENTED_EDGE('',*,*,#170,.T.);
#218=ORIENTED_EDGE('',*,*,#156,.T.);
#219=ORIENTED_EDGE('',*,*,#169,.T.);
#220=ORIENTED_EDGE('',*,*,#171,.T.);
#221=ORIENTED_EDGE('',*,*,#172,.T.);
#222=ORIENTED_EDGE('',*,*,#163,.T.);
#223=ORIENTED_EDGE('',*,*,#142,.F.);
#224=ORIENTED_EDGE('',*,*,#147,.F.);
#225=ORIENTED_EDGE('',*,*,#173,.T.);
#226=ORIENTED_EDGE('',*,*,#158,.F.);
#227=ORIENTED_EDGE('',*,*,#167,.F.);
#228=ORIENTED_EDGE('',*,*,#174,.F.);
#229=ORIENTED_EDGE('',*,*,#171,.F.);
#230=ORIENTED_EDGE('',*,*,#168,.F.);
#231=ORIENTED_EDGE('',*,*,#146,.F.);
#232=ORIENTED_EDGE('',*,*,#157,.F.);
#233=ORIENTED_EDGE('',*,*,#170,.F.);
#234=ORIENTED_EDGE('',*,*,#161,.F.);
#235=ORIENTED_EDGE('',*,*,#159,.F.);
#236=ORIENTED_EDGE('',*,*,#173,.F.);
#237=ORIENTED_EDGE('',*,*,#153,.F.);
#238=ORIENTED_EDGE('',*,*,#164,.T.);
#239=ORIENTED_EDGE('',*,*,#172,.F.);
#240=ORIENTED_EDGE('',*,*,#174,.T.);
#241=ORIENTED_EDGE('',*,*,#166,.F.);
#242=ORIENTED_EDGE('',*,*,#154,.T.);
#243=CYLINDRICAL_SURFACE('',#279,2.);
#244=CYLINDRICAL_SURFACE('',#284,10.);
#245=ADVANCED_FACE('',(#29),#243,.T.);
#246=ADVANCED_FACE('',(#30),#17,.T.);
#247=ADVANCED_FACE('',(#31),#18,.T.);
#248=ADVANCED_FACE('',(#32),#244,.F.);
#249=ADVANCED_FACE('',(#33),#19,.T.);
#250=ADVANCED_FACE('',(#34),#20,.T.);
#251=ADVANCED_FACE('',(#35),#21,.T.);
#252=ADVANCED_FACE('',(#36),#22,.T.);
#253=ADVANCED_FACE('',(#37),#23,.T.);
#254=ADVANCED_FACE('',(#38),#24,.T.);
#255=ADVANCED_FACE('',(#39),#25,.T.);
#256=ADVANCED_FACE('',(#40),#26,.T.);
#257=ADVANCED_FACE('',(#41),#27,.T.);
#258=ADVANCED_FACE('',(#42),#28,.F.);
#259=CLOSED_SHELL('',(#245,#246,#247,#248,#249,#250,#251,#252,#253,#254,
#255,#256,#257,#258));
#260=DERIVED_UNIT_ELEMENT(#262,1.);
#261=DERIVED_UNIT_ELEMENT(#441,3.);
#262=(
MASS_UNIT()
NAMED_UNIT(*)
SI_UNIT($,.GRAM.)
);
#263=DERIVED_UNIT((#260,#261));
#264=MEASURE_REPRESENTATION_ITEM('density measure',
POSITIVE_RATIO_MEASURE(2.7),#263);
#265=PROPERTY_DEFINITION_REPRESENTATION(#270,#267);
#266=PROPERTY_DEFINITION_REPRESENTATION(#271,#268);
#267=REPRESENTATION('material name',(#269),#438);
#268=REPRESENTATION('density',(#264),#438);
#269=DESCRIPTIVE_REPRESENTATION_ITEM('AlMgSi1','AlMgSi1');
#270=PROPERTY_DEFINITION('material property','material name',#448);
#271=PROPERTY_DEFINITION('material property','density of part',#448);
#272=DATE_TIME_ROLE('creation_date');
#273=APPLIED_DATE_AND_TIME_ASSIGNMENT(#274,#272,(#448));
#274=DATE_AND_TIME(#275,#276);
#275=CALENDAR_DATE(2021,12,2);
#276=LOCAL_TIME(14,14,9.,#277);
#277=COORDINATED_UNIVERSAL_TIME_OFFSET(0,0,.BEHIND.);
#278=AXIS2_PLACEMENT_3D('placement',#365,#297,#298);
#279=AXIS2_PLACEMENT_3D('',#366,#299,#300);
#280=AXIS2_PLACEMENT_3D('',#369,#301,#302);
#281=AXIS2_PLACEMENT_3D('',#373,#304,#305);
#282=AXIS2_PLACEMENT_3D('',#375,#307,#308);
#283=AXIS2_PLACEMENT_3D('',#381,#312,#313);
#284=AXIS2_PLACEMENT_3D('',#387,#317,#318);
#285=AXIS2_PLACEMENT_3D('',#389,#319,#320);
#286=AXIS2_PLACEMENT_3D('',#391,#321,#322);
#287=AXIS2_PLACEMENT_3D('',#393,#324,#325);
#288=AXIS2_PLACEMENT_3D('',#401,#330,#331);
#289=AXIS2_PLACEMENT_3D('',#407,#335,#336);
#290=AXIS2_PLACEMENT_3D('',#415,#341,#342);
#291=AXIS2_PLACEMENT_3D('',#421,#346,#347);
#292=AXIS2_PLACEMENT_3D('',#426,#351,#352);
#293=AXIS2_PLACEMENT_3D('',#430,#355,#356);
#294=AXIS2_PLACEMENT_3D('',#432,#358,#359);
#295=AXIS2_PLACEMENT_3D('',#434,#361,#362);
#296=AXIS2_PLACEMENT_3D('',#435,#363,#364);
#297=DIRECTION('axis',(0.,0.,1.));
#298=DIRECTION('refdir',(1.,0.,0.));
#299=DIRECTION('center_axis',(-4.44089209850063E-16,-1.,0.));
#300=DIRECTION('ref_axis',(0.707106781186548,0.,-0.707106781186548));
#301=DIRECTION('center_axis',(8.37382644631347E-17,0.707106781186548,0.707106781186548));
#302=DIRECTION('ref_axis',(3.92523114670944E-16,0.707106781186547,-0.707106781186547));
#303=DIRECTION('',(4.44089209850063E-16,1.,0.));
#304=DIRECTION('center_axis',(0.,-0.707106781186548,0.707106781186548));
#305=DIRECTION('ref_axis',(-4.41588504004812E-16,-0.707106781186547,-0.707106781186547));
#306=DIRECTION('',(-4.44089209850063E-16,-1.,0.));
#307=DIRECTION('center_axis',(-8.37382644631347E-17,-0.707106781186548,
-0.707106781186548));
#308=DIRECTION('ref_axis',(-1.,0.,1.1842378929335E-16));
#309=DIRECTION('',(-1.,1.1842378929335E-16,0.));
#310=DIRECTION('',(-6.2803698347351E-17,0.707106781186548,-0.707106781186548));
#311=DIRECTION('',(1.,-1.1842378929335E-16,0.));
#312=DIRECTION('center_axis',(1.,-4.44089209850063E-16,0.));
#313=DIRECTION('ref_axis',(-4.44089209850063E-16,-1.,0.));
#314=DIRECTION('',(0.,0.,-1.));
#315=DIRECTION('',(4.44089209850063E-16,1.,0.));
#316=DIRECTION('',(0.,0.,-1.));
#317=DIRECTION('center_axis',(4.44089209850063E-16,1.,0.));
#318=DIRECTION('ref_axis',(-0.707106781186547,3.14018491736755E-16,0.707106781186547));
#319=DIRECTION('center_axis',(-1.1842378929335E-16,-1.,0.));
#320=DIRECTION('ref_axis',(-0.707106781186547,3.14018491736755E-16,0.707106781186547));
#321=DIRECTION('center_axis',(0.,1.,0.));
#322=DIRECTION('ref_axis',(-0.707106781186547,3.14018491736755E-16,0.707106781186547));
#323=DIRECTION('',(-4.44089209850063E-16,-1.,0.));
#324=DIRECTION('center_axis',(-1.1842378929335E-16,-1.,0.));
#325=DIRECTION('ref_axis',(1.,-1.1842378929335E-16,0.));
#326=DIRECTION('',(-1.,1.1842378929335E-16,0.));
#327=DIRECTION('',(0.,0.,-1.));
#328=DIRECTION('',(1.,-1.1842378929335E-16,0.));
#329=DIRECTION('',(0.,0.,-1.));
#330=DIRECTION('center_axis',(0.,0.707106781186548,-0.707106781186548));
#331=DIRECTION('ref_axis',(-1.,0.,0.));
#332=DIRECTION('',(-1.,0.,0.));
#333=DIRECTION('',(-6.2803698347351E-17,0.707106781186548,0.707106781186548));
#334=DIRECTION('',(1.,0.,0.));
#335=DIRECTION('center_axis',(0.,1.,0.));
#336=DIRECTION('ref_axis',(-1.,0.,0.));
#337=DIRECTION('',(0.,0.,1.));
#338=DIRECTION('',(-1.,0.,0.));
#339=DIRECTION('',(0.,0.,1.));
#340=DIRECTION('',(1.,0.,0.));
#341=DIRECTION('center_axis',(0.707106781186548,-0.707106781186548,0.));
#342=DIRECTION('ref_axis',(0.,0.,-1.));
#343=DIRECTION('',(-0.707106781186548,-0.707106781186548,0.));
#344=DIRECTION('',(0.707106781186548,0.707106781186548,0.));
#345=DIRECTION('',(0.,0.,1.));
#346=DIRECTION('center_axis',(0.,0.,1.));
#347=DIRECTION('ref_axis',(1.,0.,0.));
#348=DIRECTION('',(0.,1.,0.));
#349=DIRECTION('',(0.707106781186547,-0.707106781186548,0.));
#350=DIRECTION('',(8.88178419700125E-17,-1.,0.));
#351=DIRECTION('center_axis',(0.707106781186548,0.707106781186547,0.));
#352=DIRECTION('ref_axis',(0.,0.,-1.));
#353=DIRECTION('',(0.,0.,-1.));
#354=DIRECTION('',(-0.707106781186547,0.707106781186548,0.));
#355=DIRECTION('center_axis',(0.,0.,-1.));
#356=DIRECTION('ref_axis',(-1.,0.,0.));
#357=DIRECTION('',(1.77635683940025E-16,1.,0.));
#358=DIRECTION('center_axis',(1.,0.,0.));
#359=DIRECTION('ref_axis',(0.,1.,0.));
#360=DIRECTION('',(0.,-1.,0.));
#361=DIRECTION('center_axis',(-1.,-8.88178419700125E-17,0.));
#362=DIRECTION('ref_axis',(8.88178419700125E-17,-1.,0.));
#363=DIRECTION('center_axis',(0.,0.,1.));
#364=DIRECTION('ref_axis',(1.,0.,0.));
#365=CARTESIAN_POINT('',(0.,0.,0.));
#366=CARTESIAN_POINT('Origin',(-27.5,12.5,-38.));
#367=CARTESIAN_POINT('',(-25.5,-25.,-38.));
#368=CARTESIAN_POINT('',(-27.5,-23.,-40.));
#369=CARTESIAN_POINT('Origin',(-27.5,-25.,-38.));
#370=CARTESIAN_POINT('',(-27.5,23.,-40.));
#371=CARTESIAN_POINT('',(-27.5,12.5,-40.));
#372=CARTESIAN_POINT('',(-25.5,25.,-38.));
#373=CARTESIAN_POINT('Origin',(-27.5,25.,-38.));
#374=CARTESIAN_POINT('',(-25.5,12.5,-38.));
#375=CARTESIAN_POINT('Origin',(-34.5,-24.,-39.));
#376=CARTESIAN_POINT('',(-37.5,-25.,-38.));
#377=CARTESIAN_POINT('',(-34.5,-25.,-38.));
#378=CARTESIAN_POINT('',(-37.5,-23.,-40.));
#379=CARTESIAN_POINT('',(-37.5,-21.5,-41.5));
#380=CARTESIAN_POINT('',(-34.5,-23.,-40.));
#381=CARTESIAN_POINT('Origin',(-25.5,25.,0.));
#382=CARTESIAN_POINT('',(-25.5,25.,-10.));
#383=CARTESIAN_POINT('',(-25.5,25.,0.));
#384=CARTESIAN_POINT('',(-25.5,-25.,-10.));
#385=CARTESIAN_POINT('',(-25.5,12.5,-10.));
#386=CARTESIAN_POINT('',(-25.5,-25.,0.));
#387=CARTESIAN_POINT('Origin',(-15.5,12.5,-10.));
#388=CARTESIAN_POINT('',(-15.5,-25.,0.));
#389=CARTESIAN_POINT('Origin',(-15.5,-25.,-10.));
#390=CARTESIAN_POINT('',(-15.5,25.,0.));
#391=CARTESIAN_POINT('Origin',(-15.5,25.,-10.));
#392=CARTESIAN_POINT('',(-15.5,12.5,0.));
#393=CARTESIAN_POINT('Origin',(-37.5,-25.,0.));
#394=CARTESIAN_POINT('',(35.5,-25.,0.));
#395=CARTESIAN_POINT('',(37.5,-25.,0.));
#396=CARTESIAN_POINT('',(35.5,-25.,12.));
#397=CARTESIAN_POINT('',(35.5,-25.,0.));
#398=CARTESIAN_POINT('',(-37.5,-25.,12.));
#399=CARTESIAN_POINT('',(37.5,-25.,12.));
#400=CARTESIAN_POINT('',(-37.5,-25.,0.));
#401=CARTESIAN_POINT('Origin',(3.,24.,-39.));
#402=CARTESIAN_POINT('',(-37.5,23.,-40.));
#403=CARTESIAN_POINT('',(3.,23.,-40.));
#404=CARTESIAN_POINT('',(-37.5,25.,-38.));
#405=CARTESIAN_POINT('',(-37.5,34.,-29.));
#406=CARTESIAN_POINT('',(3.,25.,-38.));
#407=CARTESIAN_POINT('Origin',(37.5,25.,0.));
#408=CARTESIAN_POINT('',(-37.5,25.,12.));
#409=CARTESIAN_POINT('',(-37.5,25.,0.));
#410=CARTESIAN_POINT('',(35.5,25.,12.));
#411=CARTESIAN_POINT('',(-37.5,25.,12.));
#412=CARTESIAN_POINT('',(35.5,25.,0.));
#413=CARTESIAN_POINT('',(35.5,25.,0.));
#414=CARTESIAN_POINT('',(-37.5,25.,0.));
#415=CARTESIAN_POINT('Origin',(36.5,-24.,0.));
#416=CARTESIAN_POINT('',(37.5,-23.,12.));
#417=CARTESIAN_POINT('',(33.375,-27.125,12.));
#418=CARTESIAN_POINT('',(37.5,-23.,0.));
#419=CARTESIAN_POINT('',(33.375,-27.125,0.));
#420=CARTESIAN_POINT('',(37.5,-23.,0.));
#421=CARTESIAN_POINT('Origin',(4.44089209850063E-15,0.,12.));
#422=CARTESIAN_POINT('',(37.5,23.,12.));
#423=CARTESIAN_POINT('',(37.5,25.,12.));
#424=CARTESIAN_POINT('',(33.375,27.125,12.));
#425=CARTESIAN_POINT('',(-37.5,-25.,12.));
#426=CARTESIAN_POINT('Origin',(36.5,24.,0.));
#427=CARTESIAN_POINT('',(37.5,23.,0.));
#428=CARTESIAN_POINT('',(37.5,23.,0.));
#429=CARTESIAN_POINT('',(33.375,27.125,0.));
#430=CARTESIAN_POINT('Origin',(-31.5,8.88178419700125E-15,-40.));
#431=CARTESIAN_POINT('',(-37.5,-25.,-40.));
#432=CARTESIAN_POINT('Origin',(37.5,-25.,0.));
#433=CARTESIAN_POINT('',(37.5,25.,0.));
#434=CARTESIAN_POINT('Origin',(-37.5,25.,0.));
#435=CARTESIAN_POINT('Origin',(3.19744231092045E-15,1.95399252334027E-15,
0.));
#436=UNCERTAINTY_MEASURE_WITH_UNIT(LENGTH_MEASURE(0.01),#440,
'DISTANCE_ACCURACY_VALUE',
'Maximum model space distance between geometric entities at asserted c
onnectivities');
#437=UNCERTAINTY_MEASURE_WITH_UNIT(LENGTH_MEASURE(0.01),#440,
'DISTANCE_ACCURACY_VALUE',
'Maximum model space distance between geometric entities at asserted c
onnectivities');
#438=(
GEOMETRIC_REPRESENTATION_CONTEXT(3)
GLOBAL_UNCERTAINTY_ASSIGNED_CONTEXT((#436))
GLOBAL_UNIT_ASSIGNED_CONTEXT((#440,#443,#442))
REPRESENTATION_CONTEXT('','3D')
);
#439=(
GEOMETRIC_REPRESENTATION_CONTEXT(3)
GLOBAL_UNCERTAINTY_ASSIGNED_CONTEXT((#437))
GLOBAL_UNIT_ASSIGNED_CONTEXT((#440,#443,#442))
REPRESENTATION_CONTEXT('','3D')
);
#440=(
LENGTH_UNIT()
NAMED_UNIT(*)
SI_UNIT(.MILLI.,.METRE.)
);
#441=(
LENGTH_UNIT()
NAMED_UNIT(*)
SI_UNIT(.CENTI.,.METRE.)
);
#442=(
NAMED_UNIT(*)
SI_UNIT($,.STERADIAN.)
SOLID_ANGLE_UNIT()
);
#443=(
NAMED_UNIT(*)
PLANE_ANGLE_UNIT()
SI_UNIT($,.RADIAN.)
);
#444=SHAPE_DEFINITION_REPRESENTATION(#445,#446);
#445=PRODUCT_DEFINITION_SHAPE('',$,#448);
#446=SHAPE_REPRESENTATION('',(#278),#438);
#447=PRODUCT_DEFINITION_CONTEXT('part definition',#452,'design');
#448=PRODUCT_DEFINITION('319-20-09-29-06',
'319-20-09-29-06 Montageplatte',#449,#447);
#449=PRODUCT_DEFINITION_FORMATION('',$,#454);
#450=PRODUCT_RELATED_PRODUCT_CATEGORY('319-20-09-29-06 Montageplatte',
'319-20-09-29-06 Montageplatte',(#454));
#451=APPLICATION_PROTOCOL_DEFINITION('international standard',
'automotive_design',2009,#452);
#452=APPLICATION_CONTEXT(
'Core Data for Automotive Mechanical Design Process');
#453=PRODUCT_CONTEXT('part definition',#452,'mechanical');
#454=PRODUCT('319-20-09-29-06','319-20-09-29-06 Montageplatte',
'Montageplatte',(#453));
#455=PRESENTATION_STYLE_ASSIGNMENT((#456));
#456=SURFACE_STYLE_USAGE(.BOTH.,#457);
#457=SURFACE_SIDE_STYLE('',(#458));
#458=SURFACE_STYLE_FILL_AREA(#459);
#459=FILL_AREA_STYLE('',(#460));
#460=FILL_AREA_STYLE_COLOUR('',#461);
#461=COLOUR_RGB('',0.749019607843137,0.749019607843137,0.749019607843137);
ENDSEC;
END-ISO-10303-21;
