ISO-10303-21;
HEADER;
/* Generated by software containing ST-Developer
 * from STEP Tools, Inc. (www.steptools.com) 
 */

FILE_DESCRIPTION(
/* description */ ('Strebe'),
/* implementation_level */ '2;1');

FILE_NAME(
/* name */ 
'Q:\\G200033  -  HBPO EQM V1_V3 - BMW FAAR_WE\\08 Konstruktion\\05 Z31
9-00\\319-20-00 Montagelinie V3\\319-20-09 VL3-080\\319-20-09-29-18 St
rebe.stp',
/* time_stamp */ '2021-03-10T13:53:03+01:00',
/* author */ ('herr_rommel'),
/* organization */ (''),
/* preprocessor_version */ 'ST-DEVELOPER v17',
/* originating_system */ 'Autodesk Inventor 2018',
/* authorisation */ '');

FILE_SCHEMA (('AUTOMOTIVE_DESIGN { 1 0 10303 214 3 1 1 }'));
ENDSEC;

DATA;
#10=MECHANICAL_DESIGN_GEOMETRIC_PRESENTATION_REPRESENTATION('',(#13),#255);
#11=SHAPE_REPRESENTATION_RELATIONSHIP('SRR','None',#262,#12);
#12=ADVANCED_BREP_SHAPE_REPRESENTATION('',(#14),#254);
#13=STYLED_ITEM('',(#271),#14);
#14=MANIFOLD_SOLID_BREP('Volumenk\X\F6rper2',#149);
#15=FACE_OUTER_BOUND('',#23,.T.);
#16=FACE_OUTER_BOUND('',#24,.T.);
#17=FACE_OUTER_BOUND('',#25,.T.);
#18=FACE_OUTER_BOUND('',#26,.T.);
#19=FACE_OUTER_BOUND('',#27,.T.);
#20=FACE_OUTER_BOUND('',#28,.T.);
#21=FACE_OUTER_BOUND('',#29,.T.);
#22=FACE_OUTER_BOUND('',#30,.T.);
#23=EDGE_LOOP('',(#97,#98,#99,#100));
#24=EDGE_LOOP('',(#101,#102,#103,#104));
#25=EDGE_LOOP('',(#105,#106,#107,#108,#109,#110));
#26=EDGE_LOOP('',(#111,#112,#113,#114));
#27=EDGE_LOOP('',(#115,#116,#117,#118));
#28=EDGE_LOOP('',(#119,#120,#121,#122));
#29=EDGE_LOOP('',(#123,#124,#125,#126));
#30=EDGE_LOOP('',(#127,#128,#129,#130,#131,#132));
#31=LINE('',#217,#49);
#32=LINE('',#219,#50);
#33=LINE('',#221,#51);
#34=LINE('',#222,#52);
#35=LINE('',#225,#53);
#36=LINE('',#227,#54);
#37=LINE('',#228,#55);
#38=LINE('',#231,#56);
#39=LINE('',#233,#57);
#40=LINE('',#235,#58);
#41=LINE('',#236,#59);
#42=LINE('',#239,#60);
#43=LINE('',#240,#61);
#44=LINE('',#243,#62);
#45=LINE('',#244,#63);
#46=LINE('',#247,#64);
#47=LINE('',#248,#65);
#48=LINE('',#250,#66);
#49=VECTOR('',#181,10.);
#50=VECTOR('',#182,10.);
#51=VECTOR('',#183,10.);
#52=VECTOR('',#184,10.);
#53=VECTOR('',#187,10.);
#54=VECTOR('',#188,10.);
#55=VECTOR('',#189,10.);
#56=VECTOR('',#192,10.);
#57=VECTOR('',#193,10.);
#58=VECTOR('',#194,10.);
#59=VECTOR('',#195,10.);
#60=VECTOR('',#198,10.);
#61=VECTOR('',#199,10.);
#62=VECTOR('',#202,10.);
#63=VECTOR('',#203,10.);
#64=VECTOR('',#206,10.);
#65=VECTOR('',#207,10.);
#66=VECTOR('',#210,10.);
#67=VERTEX_POINT('',#215);
#68=VERTEX_POINT('',#216);
#69=VERTEX_POINT('',#218);
#70=VERTEX_POINT('',#220);
#71=VERTEX_POINT('',#224);
#72=VERTEX_POINT('',#226);
#73=VERTEX_POINT('',#230);
#74=VERTEX_POINT('',#232);
#75=VERTEX_POINT('',#234);
#76=VERTEX_POINT('',#238);
#77=VERTEX_POINT('',#242);
#78=VERTEX_POINT('',#246);
#79=EDGE_CURVE('',#67,#68,#31,.T.);
#80=EDGE_CURVE('',#68,#69,#32,.T.);
#81=EDGE_CURVE('',#69,#70,#33,.T.);
#82=EDGE_CURVE('',#70,#67,#34,.T.);
#83=EDGE_CURVE('',#71,#70,#35,.T.);
#84=EDGE_CURVE('',#72,#71,#36,.T.);
#85=EDGE_CURVE('',#72,#67,#37,.T.);
#86=EDGE_CURVE('',#69,#73,#38,.T.);
#87=EDGE_CURVE('',#73,#74,#39,.T.);
#88=EDGE_CURVE('',#74,#75,#40,.T.);
#89=EDGE_CURVE('',#71,#75,#41,.T.);
#90=EDGE_CURVE('',#76,#72,#42,.T.);
#91=EDGE_CURVE('',#75,#76,#43,.T.);
#92=EDGE_CURVE('',#74,#77,#44,.T.);
#93=EDGE_CURVE('',#77,#76,#45,.T.);
#94=EDGE_CURVE('',#68,#78,#46,.T.);
#95=EDGE_CURVE('',#73,#78,#47,.T.);
#96=EDGE_CURVE('',#78,#77,#48,.T.);
#97=ORIENTED_EDGE('',*,*,#79,.T.);
#98=ORIENTED_EDGE('',*,*,#80,.T.);
#99=ORIENTED_EDGE('',*,*,#81,.T.);
#100=ORIENTED_EDGE('',*,*,#82,.T.);
#101=ORIENTED_EDGE('',*,*,#82,.F.);
#102=ORIENTED_EDGE('',*,*,#83,.F.);
#103=ORIENTED_EDGE('',*,*,#84,.F.);
#104=ORIENTED_EDGE('',*,*,#85,.T.);
#105=ORIENTED_EDGE('',*,*,#81,.F.);
#106=ORIENTED_EDGE('',*,*,#86,.T.);
#107=ORIENTED_EDGE('',*,*,#87,.T.);
#108=ORIENTED_EDGE('',*,*,#88,.T.);
#109=ORIENTED_EDGE('',*,*,#89,.F.);
#110=ORIENTED_EDGE('',*,*,#83,.T.);
#111=ORIENTED_EDGE('',*,*,#90,.T.);
#112=ORIENTED_EDGE('',*,*,#84,.T.);
#113=ORIENTED_EDGE('',*,*,#89,.T.);
#114=ORIENTED_EDGE('',*,*,#91,.T.);
#115=ORIENTED_EDGE('',*,*,#91,.F.);
#116=ORIENTED_EDGE('',*,*,#88,.F.);
#117=ORIENTED_EDGE('',*,*,#92,.T.);
#118=ORIENTED_EDGE('',*,*,#93,.T.);
#119=ORIENTED_EDGE('',*,*,#80,.F.);
#120=ORIENTED_EDGE('',*,*,#94,.T.);
#121=ORIENTED_EDGE('',*,*,#95,.F.);
#122=ORIENTED_EDGE('',*,*,#86,.F.);
#123=ORIENTED_EDGE('',*,*,#96,.T.);
#124=ORIENTED_EDGE('',*,*,#92,.F.);
#125=ORIENTED_EDGE('',*,*,#87,.F.);
#126=ORIENTED_EDGE('',*,*,#95,.T.);
#127=ORIENTED_EDGE('',*,*,#79,.F.);
#128=ORIENTED_EDGE('',*,*,#85,.F.);
#129=ORIENTED_EDGE('',*,*,#90,.F.);
#130=ORIENTED_EDGE('',*,*,#93,.F.);
#131=ORIENTED_EDGE('',*,*,#96,.F.);
#132=ORIENTED_EDGE('',*,*,#94,.F.);
#133=PLANE('',#169);
#134=PLANE('',#170);
#135=PLANE('',#171);
#136=PLANE('',#172);
#137=PLANE('',#173);
#138=PLANE('',#174);
#139=PLANE('',#175);
#140=PLANE('',#176);
#141=ADVANCED_FACE('',(#15),#133,.T.);
#142=ADVANCED_FACE('',(#16),#134,.T.);
#143=ADVANCED_FACE('',(#17),#135,.F.);
#144=ADVANCED_FACE('',(#18),#136,.T.);
#145=ADVANCED_FACE('',(#19),#137,.T.);
#146=ADVANCED_FACE('',(#20),#138,.T.);
#147=ADVANCED_FACE('',(#21),#139,.T.);
#148=ADVANCED_FACE('',(#22),#140,.T.);
#149=CLOSED_SHELL('',(#141,#142,#143,#144,#145,#146,#147,#148));
#150=DERIVED_UNIT_ELEMENT(#152,1.);
#151=DERIVED_UNIT_ELEMENT(#257,3.);
#152=(
MASS_UNIT()
NAMED_UNIT(*)
SI_UNIT($,.GRAM.)
);
#153=DERIVED_UNIT((#150,#151));
#154=MEASURE_REPRESENTATION_ITEM('density measure',
POSITIVE_RATIO_MEASURE(2.7),#153);
#155=PROPERTY_DEFINITION_REPRESENTATION(#160,#157);
#156=PROPERTY_DEFINITION_REPRESENTATION(#161,#158);
#157=REPRESENTATION('material name',(#159),#254);
#158=REPRESENTATION('density',(#154),#254);
#159=DESCRIPTIVE_REPRESENTATION_ITEM('AlMgSi1','AlMgSi1');
#160=PROPERTY_DEFINITION('material property','material name',#264);
#161=PROPERTY_DEFINITION('material property','density of part',#264);
#162=DATE_TIME_ROLE('creation_date');
#163=APPLIED_DATE_AND_TIME_ASSIGNMENT(#164,#162,(#264));
#164=DATE_AND_TIME(#165,#166);
#165=CALENDAR_DATE(2021,12,2);
#166=LOCAL_TIME(14,25,38.,#167);
#167=COORDINATED_UNIVERSAL_TIME_OFFSET(0,0,.BEHIND.);
#168=AXIS2_PLACEMENT_3D('placement',#213,#177,#178);
#169=AXIS2_PLACEMENT_3D('',#214,#179,#180);
#170=AXIS2_PLACEMENT_3D('',#223,#185,#186);
#171=AXIS2_PLACEMENT_3D('',#229,#190,#191);
#172=AXIS2_PLACEMENT_3D('',#237,#196,#197);
#173=AXIS2_PLACEMENT_3D('',#241,#200,#201);
#174=AXIS2_PLACEMENT_3D('',#245,#204,#205);
#175=AXIS2_PLACEMENT_3D('',#249,#208,#209);
#176=AXIS2_PLACEMENT_3D('',#251,#211,#212);
#177=DIRECTION('axis',(0.,0.,1.));
#178=DIRECTION('refdir',(1.,0.,0.));
#179=DIRECTION('center_axis',(0.707106781186548,-0.707106781186548,0.));
#180=DIRECTION('ref_axis',(0.,0.,-1.));
#181=DIRECTION('',(-0.707106781186548,-0.707106781186548,0.));
#182=DIRECTION('',(0.,0.,-1.));
#183=DIRECTION('',(0.707106781186548,0.707106781186548,0.));
#184=DIRECTION('',(0.,0.,1.));
#185=DIRECTION('center_axis',(1.,0.,0.));
#186=DIRECTION('ref_axis',(0.,0.,-1.));
#187=DIRECTION('',(0.,-1.,0.));
#188=DIRECTION('',(0.,0.,-1.));
#189=DIRECTION('',(0.,-1.,0.));
#190=DIRECTION('center_axis',(0.,0.,1.));
#191=DIRECTION('ref_axis',(1.,0.,0.));
#192=DIRECTION('',(-1.,0.,0.));
#193=DIRECTION('',(0.,1.,0.));
#194=DIRECTION('',(1.,0.,0.));
#195=DIRECTION('',(-0.707106781186548,0.707106781186548,0.));
#196=DIRECTION('center_axis',(0.707106781186548,0.707106781186548,0.));
#197=DIRECTION('ref_axis',(0.,0.,-1.));
#198=DIRECTION('',(0.707106781186548,-0.707106781186548,0.));
#199=DIRECTION('',(0.,0.,1.));
#200=DIRECTION('center_axis',(0.,1.,0.));
#201=DIRECTION('ref_axis',(0.,0.,1.));
#202=DIRECTION('',(0.,0.,1.));
#203=DIRECTION('',(1.,0.,0.));
#204=DIRECTION('center_axis',(0.,-1.,0.));
#205=DIRECTION('ref_axis',(0.,0.,-1.));
#206=DIRECTION('',(-1.,0.,0.));
#207=DIRECTION('',(0.,0.,1.));
#208=DIRECTION('center_axis',(-1.,0.,0.));
#209=DIRECTION('ref_axis',(0.,0.,1.));
#210=DIRECTION('',(0.,1.,0.));
#211=DIRECTION('center_axis',(0.,0.,1.));
#212=DIRECTION('ref_axis',(1.,0.,0.));
#213=CARTESIAN_POINT('',(0.,0.,0.));
#214=CARTESIAN_POINT('Origin',(7.50000000000008,-320.,0.));
#215=CARTESIAN_POINT('',(12.5000000000001,-315.,10.));
#216=CARTESIAN_POINT('',(2.50000000000008,-325.,10.));
#217=CARTESIAN_POINT('',(85.625,-241.875,10.));
#218=CARTESIAN_POINT('',(2.50000000000008,-325.,0.));
#219=CARTESIAN_POINT('',(2.50000000000008,-325.,0.));
#220=CARTESIAN_POINT('',(12.5000000000001,-315.,0.));
#221=CARTESIAN_POINT('',(85.625,-241.875,0.));
#222=CARTESIAN_POINT('',(12.5000000000001,-315.,0.));
#223=CARTESIAN_POINT('Origin',(12.5000000000001,325.,0.));
#224=CARTESIAN_POINT('',(12.5000000000001,315.,0.));
#225=CARTESIAN_POINT('',(12.5000000000001,325.,0.));
#226=CARTESIAN_POINT('',(12.5000000000001,315.,10.));
#227=CARTESIAN_POINT('',(12.5000000000001,315.,0.));
#228=CARTESIAN_POINT('',(12.5000000000001,325.,10.));
#229=CARTESIAN_POINT('Origin',(-1.49524986481503E-17,0.,0.));
#230=CARTESIAN_POINT('',(-12.5000000000001,-325.,0.));
#231=CARTESIAN_POINT('',(12.5000000000001,-325.,0.));
#232=CARTESIAN_POINT('',(-12.5000000000001,325.,0.));
#233=CARTESIAN_POINT('',(-12.5000000000001,-325.,0.));
#234=CARTESIAN_POINT('',(2.50000000000008,325.,0.));
#235=CARTESIAN_POINT('',(-12.5000000000001,325.,0.));
#236=CARTESIAN_POINT('',(85.625,241.875,0.));
#237=CARTESIAN_POINT('Origin',(7.50000000000008,320.,0.));
#238=CARTESIAN_POINT('',(2.50000000000008,325.,10.));
#239=CARTESIAN_POINT('',(85.625,241.875,10.));
#240=CARTESIAN_POINT('',(2.50000000000008,325.,0.));
#241=CARTESIAN_POINT('Origin',(-12.5000000000001,325.,0.));
#242=CARTESIAN_POINT('',(-12.5000000000001,325.,10.));
#243=CARTESIAN_POINT('',(-12.5000000000001,325.,0.));
#244=CARTESIAN_POINT('',(-12.5000000000001,325.,10.));
#245=CARTESIAN_POINT('Origin',(12.5000000000001,-325.,0.));
#246=CARTESIAN_POINT('',(-12.5000000000001,-325.,10.));
#247=CARTESIAN_POINT('',(12.5000000000001,-325.,10.));
#248=CARTESIAN_POINT('',(-12.5000000000001,-325.,0.));
#249=CARTESIAN_POINT('Origin',(-12.5000000000001,-325.,0.));
#250=CARTESIAN_POINT('',(-12.5000000000001,-325.,10.));
#251=CARTESIAN_POINT('Origin',(1.49524986481503E-17,0.,10.));
#252=UNCERTAINTY_MEASURE_WITH_UNIT(LENGTH_MEASURE(0.01),#256,
'DISTANCE_ACCURACY_VALUE',
'Maximum model space distance between geometric entities at asserted c
onnectivities');
#253=UNCERTAINTY_MEASURE_WITH_UNIT(LENGTH_MEASURE(0.01),#256,
'DISTANCE_ACCURACY_VALUE',
'Maximum model space distance between geometric entities at asserted c
onnectivities');
#254=(
GEOMETRIC_REPRESENTATION_CONTEXT(3)
GLOBAL_UNCERTAINTY_ASSIGNED_CONTEXT((#252))
GLOBAL_UNIT_ASSIGNED_CONTEXT((#256,#259,#258))
REPRESENTATION_CONTEXT('','3D')
);
#255=(
GEOMETRIC_REPRESENTATION_CONTEXT(3)
GLOBAL_UNCERTAINTY_ASSIGNED_CONTEXT((#253))
GLOBAL_UNIT_ASSIGNED_CONTEXT((#256,#259,#258))
REPRESENTATION_CONTEXT('','3D')
);
#256=(
LENGTH_UNIT()
NAMED_UNIT(*)
SI_UNIT(.MILLI.,.METRE.)
);
#257=(
LENGTH_UNIT()
NAMED_UNIT(*)
SI_UNIT(.CENTI.,.METRE.)
);
#258=(
NAMED_UNIT(*)
SI_UNIT($,.STERADIAN.)
SOLID_ANGLE_UNIT()
);
#259=(
NAMED_UNIT(*)
PLANE_ANGLE_UNIT()
SI_UNIT($,.RADIAN.)
);
#260=SHAPE_DEFINITION_REPRESENTATION(#261,#262);
#261=PRODUCT_DEFINITION_SHAPE('',$,#264);
#262=SHAPE_REPRESENTATION('',(#168),#254);
#263=PRODUCT_DEFINITION_CONTEXT('part definition',#268,'design');
#264=PRODUCT_DEFINITION('319-20-09-29-18','319-20-09-29-18 Strebe',#265,
#263);
#265=PRODUCT_DEFINITION_FORMATION('',$,#270);
#266=PRODUCT_RELATED_PRODUCT_CATEGORY('319-20-09-29-18 Strebe',
'319-20-09-29-18 Strebe',(#270));
#267=APPLICATION_PROTOCOL_DEFINITION('international standard',
'automotive_design',2009,#268);
#268=APPLICATION_CONTEXT(
'Core Data for Automotive Mechanical Design Process');
#269=PRODUCT_CONTEXT('part definition',#268,'mechanical');
#270=PRODUCT('319-20-09-29-18','319-20-09-29-18 Strebe','Strebe',(#269));
#271=PRESENTATION_STYLE_ASSIGNMENT((#272));
#272=SURFACE_STYLE_USAGE(.BOTH.,#273);
#273=SURFACE_SIDE_STYLE('',(#274));
#274=SURFACE_STYLE_FILL_AREA(#275);
#275=FILL_AREA_STYLE('',(#276));
#276=FILL_AREA_STYLE_COLOUR('',#277);
#277=COLOUR_RGB('',0.749019607843137,0.749019607843137,0.749019607843137);
ENDSEC;
END-ISO-10303-21;
