ISO-10303-21;
HEADER;
/* Generated by software containing ST-Developer
 * from STEP Tools, Inc. (www.steptools.com) 
 */

FILE_DESCRIPTION(
/* description */ ('Verstrebung'),
/* implementation_level */ '2;1');

FILE_NAME(
/* name */ 
'Q:\\G200033  -  HBPO EQM V1_V3 - BMW FAAR_WE\\08 Konstruktion\\05 Z31
9-00\\319-20-00 Montagelinie V3\\319-20-09 VL3-080\\319-20-09-29-09 Ve
rstrebung.stp',
/* time_stamp */ '2021-03-10T13:25:10+01:00',
/* author */ ('herr_rommel'),
/* organization */ (''),
/* preprocessor_version */ 'ST-DEVELOPER v17',
/* originating_system */ 'Autodesk Inventor 2018',
/* authorisation */ '');

FILE_SCHEMA (('AUTOMOTIVE_DESIGN { 1 0 10303 214 3 1 1 }'));
ENDSEC;

DATA;
#10=MECHANICAL_DESIGN_GEOMETRIC_PRESENTATION_REPRESENTATION('',(#13),#591);
#11=SHAPE_REPRESENTATION_RELATIONSHIP('SRR','None',#598,#12);
#12=ADVANCED_BREP_SHAPE_REPRESENTATION('',(#14),#590);
#13=STYLED_ITEM('',(#607),#14);
#14=MANIFOLD_SOLID_BREP('Volumenk\X\F6rper1',#353);
#15=CYLINDRICAL_SURFACE('',#383,1.);
#16=CYLINDRICAL_SURFACE('',#385,4.);
#17=CYLINDRICAL_SURFACE('',#388,4.);
#18=CIRCLE('',#375,4.);
#19=CIRCLE('',#376,4.);
#20=CIRCLE('',#377,1.);
#21=CIRCLE('',#384,1.);
#22=CIRCLE('',#386,4.);
#23=CIRCLE('',#389,4.);
#24=FACE_OUTER_BOUND('',#42,.T.);
#25=FACE_OUTER_BOUND('',#43,.T.);
#26=FACE_OUTER_BOUND('',#44,.T.);
#27=FACE_OUTER_BOUND('',#45,.T.);
#28=FACE_OUTER_BOUND('',#46,.T.);
#29=FACE_OUTER_BOUND('',#47,.T.);
#30=FACE_OUTER_BOUND('',#48,.T.);
#31=FACE_OUTER_BOUND('',#49,.T.);
#32=FACE_OUTER_BOUND('',#50,.T.);
#33=FACE_OUTER_BOUND('',#51,.T.);
#34=FACE_OUTER_BOUND('',#52,.T.);
#35=FACE_OUTER_BOUND('',#53,.T.);
#36=FACE_OUTER_BOUND('',#54,.T.);
#37=FACE_OUTER_BOUND('',#55,.T.);
#38=FACE_OUTER_BOUND('',#56,.T.);
#39=FACE_OUTER_BOUND('',#57,.T.);
#40=FACE_OUTER_BOUND('',#58,.T.);
#41=FACE_OUTER_BOUND('',#59,.T.);
#42=EDGE_LOOP('',(#224,#225,#226,#227));
#43=EDGE_LOOP('',(#228,#229,#230,#231,#232,#233,#234,#235,#236,#237,#238,
#239,#240,#241,#242,#243));
#44=EDGE_LOOP('',(#244,#245,#246,#247));
#45=EDGE_LOOP('',(#248,#249,#250,#251));
#46=EDGE_LOOP('',(#252,#253,#254,#255));
#47=EDGE_LOOP('',(#256,#257,#258,#259));
#48=EDGE_LOOP('',(#260,#261,#262,#263));
#49=EDGE_LOOP('',(#264,#265,#266,#267));
#50=EDGE_LOOP('',(#268,#269,#270,#271));
#51=EDGE_LOOP('',(#272,#273,#274,#275));
#52=EDGE_LOOP('',(#276,#277,#278,#279));
#53=EDGE_LOOP('',(#280,#281,#282,#283));
#54=EDGE_LOOP('',(#284,#285,#286,#287));
#55=EDGE_LOOP('',(#288,#289,#290,#291));
#56=EDGE_LOOP('',(#292,#293,#294,#295));
#57=EDGE_LOOP('',(#296,#297,#298,#299));
#58=EDGE_LOOP('',(#300,#301,#302,#303,#304,#305,#306,#307,#308,#309,#310,
#311,#312,#313,#314,#315));
#59=EDGE_LOOP('',(#316,#317,#318,#319));
#60=LINE('',#493,#102);
#61=LINE('',#495,#103);
#62=LINE('',#497,#104);
#63=LINE('',#498,#105);
#64=LINE('',#501,#106);
#65=LINE('',#503,#107);
#66=LINE('',#505,#108);
#67=LINE('',#509,#109);
#68=LINE('',#511,#110);
#69=LINE('',#513,#111);
#70=LINE('',#515,#112);
#71=LINE('',#517,#113);
#72=LINE('',#521,#114);
#73=LINE('',#523,#115);
#74=LINE('',#527,#116);
#75=LINE('',#528,#117);
#76=LINE('',#531,#118);
#77=LINE('',#532,#119);
#78=LINE('',#535,#120);
#79=LINE('',#536,#121);
#80=LINE('',#539,#122);
#81=LINE('',#540,#123);
#82=LINE('',#544,#124);
#83=LINE('',#545,#125);
#84=LINE('',#546,#126);
#85=LINE('',#549,#127);
#86=LINE('',#550,#128);
#87=LINE('',#553,#129);
#88=LINE('',#556,#130);
#89=LINE('',#559,#131);
#90=LINE('',#562,#132);
#91=LINE('',#565,#133);
#92=LINE('',#566,#134);
#93=LINE('',#569,#135);
#94=LINE('',#572,#136);
#95=LINE('',#575,#137);
#96=LINE('',#576,#138);
#97=LINE('',#578,#139);
#98=LINE('',#580,#140);
#99=LINE('',#583,#141);
#100=LINE('',#584,#142);
#101=LINE('',#586,#143);
#102=VECTOR('',#401,10.);
#103=VECTOR('',#402,10.);
#104=VECTOR('',#403,10.);
#105=VECTOR('',#404,10.);
#106=VECTOR('',#407,10.);
#107=VECTOR('',#408,10.);
#108=VECTOR('',#409,10.);
#109=VECTOR('',#412,10.);
#110=VECTOR('',#413,10.);
#111=VECTOR('',#414,10.);
#112=VECTOR('',#415,10.);
#113=VECTOR('',#416,10.);
#114=VECTOR('',#419,10.);
#115=VECTOR('',#420,10.);
#116=VECTOR('',#423,10.);
#117=VECTOR('',#424,10.);
#118=VECTOR('',#427,10.);
#119=VECTOR('',#428,10.);
#120=VECTOR('',#431,10.);
#121=VECTOR('',#432,10.);
#122=VECTOR('',#435,10.);
#123=VECTOR('',#436,10.);
#124=VECTOR('',#439,10.);
#125=VECTOR('',#440,10.);
#126=VECTOR('',#441,10.);
#127=VECTOR('',#444,10.);
#128=VECTOR('',#445,10.);
#129=VECTOR('',#448,10.);
#130=VECTOR('',#451,10.);
#131=VECTOR('',#454,10.);
#132=VECTOR('',#457,10.);
#133=VECTOR('',#460,10.);
#134=VECTOR('',#461,10.);
#135=VECTOR('',#464,10.);
#136=VECTOR('',#469,10.);
#137=VECTOR('',#472,10.);
#138=VECTOR('',#473,10.);
#139=VECTOR('',#476,10.);
#140=VECTOR('',#479,10.);
#141=VECTOR('',#482,10.);
#142=VECTOR('',#483,10.);
#143=VECTOR('',#486,10.);
#144=VERTEX_POINT('',#491);
#145=VERTEX_POINT('',#492);
#146=VERTEX_POINT('',#494);
#147=VERTEX_POINT('',#496);
#148=VERTEX_POINT('',#500);
#149=VERTEX_POINT('',#502);
#150=VERTEX_POINT('',#504);
#151=VERTEX_POINT('',#506);
#152=VERTEX_POINT('',#508);
#153=VERTEX_POINT('',#510);
#154=VERTEX_POINT('',#512);
#155=VERTEX_POINT('',#514);
#156=VERTEX_POINT('',#516);
#157=VERTEX_POINT('',#518);
#158=VERTEX_POINT('',#520);
#159=VERTEX_POINT('',#522);
#160=VERTEX_POINT('',#524);
#161=VERTEX_POINT('',#526);
#162=VERTEX_POINT('',#530);
#163=VERTEX_POINT('',#534);
#164=VERTEX_POINT('',#538);
#165=VERTEX_POINT('',#542);
#166=VERTEX_POINT('',#543);
#167=VERTEX_POINT('',#548);
#168=VERTEX_POINT('',#552);
#169=VERTEX_POINT('',#554);
#170=VERTEX_POINT('',#558);
#171=VERTEX_POINT('',#560);
#172=VERTEX_POINT('',#564);
#173=VERTEX_POINT('',#568);
#174=VERTEX_POINT('',#574);
#175=VERTEX_POINT('',#582);
#176=EDGE_CURVE('',#144,#145,#60,.T.);
#177=EDGE_CURVE('',#145,#146,#61,.T.);
#178=EDGE_CURVE('',#146,#147,#62,.T.);
#179=EDGE_CURVE('',#147,#144,#63,.T.);
#180=EDGE_CURVE('',#148,#146,#64,.T.);
#181=EDGE_CURVE('',#149,#148,#65,.T.);
#182=EDGE_CURVE('',#149,#150,#66,.T.);
#183=EDGE_CURVE('',#151,#150,#18,.T.);
#184=EDGE_CURVE('',#151,#152,#67,.T.);
#185=EDGE_CURVE('',#153,#152,#68,.T.);
#186=EDGE_CURVE('',#153,#154,#69,.T.);
#187=EDGE_CURVE('',#154,#155,#70,.T.);
#188=EDGE_CURVE('',#155,#156,#71,.T.);
#189=EDGE_CURVE('',#157,#156,#19,.T.);
#190=EDGE_CURVE('',#157,#158,#72,.T.);
#191=EDGE_CURVE('',#158,#159,#73,.T.);
#192=EDGE_CURVE('',#159,#160,#20,.T.);
#193=EDGE_CURVE('',#161,#160,#74,.T.);
#194=EDGE_CURVE('',#147,#161,#75,.T.);
#195=EDGE_CURVE('',#162,#145,#76,.T.);
#196=EDGE_CURVE('',#148,#162,#77,.T.);
#197=EDGE_CURVE('',#162,#163,#78,.T.);
#198=EDGE_CURVE('',#163,#149,#79,.T.);
#199=EDGE_CURVE('',#161,#164,#80,.T.);
#200=EDGE_CURVE('',#164,#144,#81,.T.);
#201=EDGE_CURVE('',#165,#166,#82,.T.);
#202=EDGE_CURVE('',#166,#153,#83,.T.);
#203=EDGE_CURVE('',#152,#165,#84,.T.);
#204=EDGE_CURVE('',#167,#151,#85,.T.);
#205=EDGE_CURVE('',#165,#167,#86,.T.);
#206=EDGE_CURVE('',#168,#159,#87,.T.);
#207=EDGE_CURVE('',#169,#168,#21,.T.);
#208=EDGE_CURVE('',#160,#169,#88,.T.);
#209=EDGE_CURVE('',#156,#170,#89,.T.);
#210=EDGE_CURVE('',#170,#171,#22,.T.);
#211=EDGE_CURVE('',#171,#157,#90,.T.);
#212=EDGE_CURVE('',#172,#155,#91,.T.);
#213=EDGE_CURVE('',#170,#172,#92,.T.);
#214=EDGE_CURVE('',#150,#173,#93,.T.);
#215=EDGE_CURVE('',#173,#167,#23,.T.);
#216=EDGE_CURVE('',#173,#163,#94,.T.);
#217=EDGE_CURVE('',#174,#158,#95,.T.);
#218=EDGE_CURVE('',#168,#174,#96,.T.);
#219=EDGE_CURVE('',#169,#164,#97,.T.);
#220=EDGE_CURVE('',#174,#171,#98,.T.);
#221=EDGE_CURVE('',#175,#166,#99,.T.);
#222=EDGE_CURVE('',#175,#154,#100,.T.);
#223=EDGE_CURVE('',#172,#175,#101,.T.);
#224=ORIENTED_EDGE('',*,*,#176,.T.);
#225=ORIENTED_EDGE('',*,*,#177,.T.);
#226=ORIENTED_EDGE('',*,*,#178,.T.);
#227=ORIENTED_EDGE('',*,*,#179,.T.);
#228=ORIENTED_EDGE('',*,*,#178,.F.);
#229=ORIENTED_EDGE('',*,*,#180,.F.);
#230=ORIENTED_EDGE('',*,*,#181,.F.);
#231=ORIENTED_EDGE('',*,*,#182,.T.);
#232=ORIENTED_EDGE('',*,*,#183,.F.);
#233=ORIENTED_EDGE('',*,*,#184,.T.);
#234=ORIENTED_EDGE('',*,*,#185,.F.);
#235=ORIENTED_EDGE('',*,*,#186,.T.);
#236=ORIENTED_EDGE('',*,*,#187,.T.);
#237=ORIENTED_EDGE('',*,*,#188,.T.);
#238=ORIENTED_EDGE('',*,*,#189,.F.);
#239=ORIENTED_EDGE('',*,*,#190,.T.);
#240=ORIENTED_EDGE('',*,*,#191,.T.);
#241=ORIENTED_EDGE('',*,*,#192,.T.);
#242=ORIENTED_EDGE('',*,*,#193,.F.);
#243=ORIENTED_EDGE('',*,*,#194,.F.);
#244=ORIENTED_EDGE('',*,*,#177,.F.);
#245=ORIENTED_EDGE('',*,*,#195,.F.);
#246=ORIENTED_EDGE('',*,*,#196,.F.);
#247=ORIENTED_EDGE('',*,*,#180,.T.);
#248=ORIENTED_EDGE('',*,*,#181,.T.);
#249=ORIENTED_EDGE('',*,*,#196,.T.);
#250=ORIENTED_EDGE('',*,*,#197,.T.);
#251=ORIENTED_EDGE('',*,*,#198,.T.);
#252=ORIENTED_EDGE('',*,*,#179,.F.);
#253=ORIENTED_EDGE('',*,*,#194,.T.);
#254=ORIENTED_EDGE('',*,*,#199,.T.);
#255=ORIENTED_EDGE('',*,*,#200,.T.);
#256=ORIENTED_EDGE('',*,*,#201,.T.);
#257=ORIENTED_EDGE('',*,*,#202,.T.);
#258=ORIENTED_EDGE('',*,*,#185,.T.);
#259=ORIENTED_EDGE('',*,*,#203,.T.);
#260=ORIENTED_EDGE('',*,*,#203,.F.);
#261=ORIENTED_EDGE('',*,*,#184,.F.);
#262=ORIENTED_EDGE('',*,*,#204,.F.);
#263=ORIENTED_EDGE('',*,*,#205,.F.);
#264=ORIENTED_EDGE('',*,*,#206,.F.);
#265=ORIENTED_EDGE('',*,*,#207,.F.);
#266=ORIENTED_EDGE('',*,*,#208,.F.);
#267=ORIENTED_EDGE('',*,*,#192,.F.);
#268=ORIENTED_EDGE('',*,*,#189,.T.);
#269=ORIENTED_EDGE('',*,*,#209,.T.);
#270=ORIENTED_EDGE('',*,*,#210,.T.);
#271=ORIENTED_EDGE('',*,*,#211,.T.);
#272=ORIENTED_EDGE('',*,*,#209,.F.);
#273=ORIENTED_EDGE('',*,*,#188,.F.);
#274=ORIENTED_EDGE('',*,*,#212,.F.);
#275=ORIENTED_EDGE('',*,*,#213,.F.);
#276=ORIENTED_EDGE('',*,*,#183,.T.);
#277=ORIENTED_EDGE('',*,*,#214,.T.);
#278=ORIENTED_EDGE('',*,*,#215,.T.);
#279=ORIENTED_EDGE('',*,*,#204,.T.);
#280=ORIENTED_EDGE('',*,*,#198,.F.);
#281=ORIENTED_EDGE('',*,*,#216,.F.);
#282=ORIENTED_EDGE('',*,*,#214,.F.);
#283=ORIENTED_EDGE('',*,*,#182,.F.);
#284=ORIENTED_EDGE('',*,*,#206,.T.);
#285=ORIENTED_EDGE('',*,*,#191,.F.);
#286=ORIENTED_EDGE('',*,*,#217,.F.);
#287=ORIENTED_EDGE('',*,*,#218,.F.);
#288=ORIENTED_EDGE('',*,*,#208,.T.);
#289=ORIENTED_EDGE('',*,*,#219,.T.);
#290=ORIENTED_EDGE('',*,*,#199,.F.);
#291=ORIENTED_EDGE('',*,*,#193,.T.);
#292=ORIENTED_EDGE('',*,*,#211,.F.);
#293=ORIENTED_EDGE('',*,*,#220,.F.);
#294=ORIENTED_EDGE('',*,*,#217,.T.);
#295=ORIENTED_EDGE('',*,*,#190,.F.);
#296=ORIENTED_EDGE('',*,*,#202,.F.);
#297=ORIENTED_EDGE('',*,*,#221,.F.);
#298=ORIENTED_EDGE('',*,*,#222,.T.);
#299=ORIENTED_EDGE('',*,*,#186,.F.);
#300=ORIENTED_EDGE('',*,*,#176,.F.);
#301=ORIENTED_EDGE('',*,*,#200,.F.);
#302=ORIENTED_EDGE('',*,*,#219,.F.);
#303=ORIENTED_EDGE('',*,*,#207,.T.);
#304=ORIENTED_EDGE('',*,*,#218,.T.);
#305=ORIENTED_EDGE('',*,*,#220,.T.);
#306=ORIENTED_EDGE('',*,*,#210,.F.);
#307=ORIENTED_EDGE('',*,*,#213,.T.);
#308=ORIENTED_EDGE('',*,*,#223,.T.);
#309=ORIENTED_EDGE('',*,*,#221,.T.);
#310=ORIENTED_EDGE('',*,*,#201,.F.);
#311=ORIENTED_EDGE('',*,*,#205,.T.);
#312=ORIENTED_EDGE('',*,*,#215,.F.);
#313=ORIENTED_EDGE('',*,*,#216,.T.);
#314=ORIENTED_EDGE('',*,*,#197,.F.);
#315=ORIENTED_EDGE('',*,*,#195,.T.);
#316=ORIENTED_EDGE('',*,*,#212,.T.);
#317=ORIENTED_EDGE('',*,*,#187,.F.);
#318=ORIENTED_EDGE('',*,*,#222,.F.);
#319=ORIENTED_EDGE('',*,*,#223,.F.);
#320=PLANE('',#373);
#321=PLANE('',#374);
#322=PLANE('',#378);
#323=PLANE('',#379);
#324=PLANE('',#380);
#325=PLANE('',#381);
#326=PLANE('',#382);
#327=PLANE('',#387);
#328=PLANE('',#390);
#329=PLANE('',#391);
#330=PLANE('',#392);
#331=PLANE('',#393);
#332=PLANE('',#394);
#333=PLANE('',#395);
#334=PLANE('',#396);
#335=ADVANCED_FACE('',(#24),#320,.T.);
#336=ADVANCED_FACE('',(#25),#321,.T.);
#337=ADVANCED_FACE('',(#26),#322,.T.);
#338=ADVANCED_FACE('',(#27),#323,.T.);
#339=ADVANCED_FACE('',(#28),#324,.T.);
#340=ADVANCED_FACE('',(#29),#325,.T.);
#341=ADVANCED_FACE('',(#30),#326,.F.);
#342=ADVANCED_FACE('',(#31),#15,.F.);
#343=ADVANCED_FACE('',(#32),#16,.F.);
#344=ADVANCED_FACE('',(#33),#327,.F.);
#345=ADVANCED_FACE('',(#34),#17,.F.);
#346=ADVANCED_FACE('',(#35),#328,.F.);
#347=ADVANCED_FACE('',(#36),#329,.F.);
#348=ADVANCED_FACE('',(#37),#330,.F.);
#349=ADVANCED_FACE('',(#38),#331,.F.);
#350=ADVANCED_FACE('',(#39),#332,.T.);
#351=ADVANCED_FACE('',(#40),#333,.T.);
#352=ADVANCED_FACE('',(#41),#334,.T.);
#353=CLOSED_SHELL('',(#335,#336,#337,#338,#339,#340,#341,#342,#343,#344,
#345,#346,#347,#348,#349,#350,#351,#352));
#354=DERIVED_UNIT_ELEMENT(#356,1.);
#355=DERIVED_UNIT_ELEMENT(#593,3.);
#356=(
MASS_UNIT()
NAMED_UNIT(*)
SI_UNIT($,.GRAM.)
);
#357=DERIVED_UNIT((#354,#355));
#358=MEASURE_REPRESENTATION_ITEM('density measure',
POSITIVE_RATIO_MEASURE(2.7),#357);
#359=PROPERTY_DEFINITION_REPRESENTATION(#364,#361);
#360=PROPERTY_DEFINITION_REPRESENTATION(#365,#362);
#361=REPRESENTATION('material name',(#363),#590);
#362=REPRESENTATION('density',(#358),#590);
#363=DESCRIPTIVE_REPRESENTATION_ITEM('AlMgSi1','AlMgSi1');
#364=PROPERTY_DEFINITION('material property','material name',#600);
#365=PROPERTY_DEFINITION('material property','density of part',#600);
#366=DATE_TIME_ROLE('creation_date');
#367=APPLIED_DATE_AND_TIME_ASSIGNMENT(#368,#366,(#600));
#368=DATE_AND_TIME(#369,#370);
#369=CALENDAR_DATE(2021,15,2);
#370=LOCAL_TIME(7,27,45.,#371);
#371=COORDINATED_UNIVERSAL_TIME_OFFSET(0,0,.BEHIND.);
#372=AXIS2_PLACEMENT_3D('placement',#489,#397,#398);
#373=AXIS2_PLACEMENT_3D('',#490,#399,#400);
#374=AXIS2_PLACEMENT_3D('',#499,#405,#406);
#375=AXIS2_PLACEMENT_3D('',#507,#410,#411);
#376=AXIS2_PLACEMENT_3D('',#519,#417,#418);
#377=AXIS2_PLACEMENT_3D('',#525,#421,#422);
#378=AXIS2_PLACEMENT_3D('',#529,#425,#426);
#379=AXIS2_PLACEMENT_3D('',#533,#429,#430);
#380=AXIS2_PLACEMENT_3D('',#537,#433,#434);
#381=AXIS2_PLACEMENT_3D('',#541,#437,#438);
#382=AXIS2_PLACEMENT_3D('',#547,#442,#443);
#383=AXIS2_PLACEMENT_3D('',#551,#446,#447);
#384=AXIS2_PLACEMENT_3D('',#555,#449,#450);
#385=AXIS2_PLACEMENT_3D('',#557,#452,#453);
#386=AXIS2_PLACEMENT_3D('',#561,#455,#456);
#387=AXIS2_PLACEMENT_3D('',#563,#458,#459);
#388=AXIS2_PLACEMENT_3D('',#567,#462,#463);
#389=AXIS2_PLACEMENT_3D('',#570,#465,#466);
#390=AXIS2_PLACEMENT_3D('',#571,#467,#468);
#391=AXIS2_PLACEMENT_3D('',#573,#470,#471);
#392=AXIS2_PLACEMENT_3D('',#577,#474,#475);
#393=AXIS2_PLACEMENT_3D('',#579,#477,#478);
#394=AXIS2_PLACEMENT_3D('',#581,#480,#481);
#395=AXIS2_PLACEMENT_3D('',#585,#484,#485);
#396=AXIS2_PLACEMENT_3D('',#587,#487,#488);
#397=DIRECTION('axis',(0.,0.,1.));
#398=DIRECTION('refdir',(1.,0.,0.));
#399=DIRECTION('center_axis',(0.707106781186548,-0.707106781186548,0.));
#400=DIRECTION('ref_axis',(0.,0.,-1.));
#401=DIRECTION('',(0.707106781186548,0.707106781186548,0.));
#402=DIRECTION('',(0.,0.,1.));
#403=DIRECTION('',(-0.707106781186548,-0.707106781186548,0.));
#404=DIRECTION('',(0.,0.,-1.));
#405=DIRECTION('center_axis',(0.,0.,1.));
#406=DIRECTION('ref_axis',(1.,0.,0.));
#407=DIRECTION('',(0.,-1.,0.));
#408=DIRECTION('',(0.707106781186548,-0.707106781186548,0.));
#409=DIRECTION('',(-1.,-2.22044604925032E-16,0.));
#410=DIRECTION('center_axis',(0.,0.,1.));
#411=DIRECTION('ref_axis',(-0.707106781186546,-0.707106781186549,0.));
#412=DIRECTION('',(-2.73285667600039E-16,1.,0.));
#413=DIRECTION('',(0.707106781186548,-0.707106781186547,0.));
#414=DIRECTION('',(-1.,0.,0.));
#415=DIRECTION('',(0.,-1.,0.));
#416=DIRECTION('',(1.,0.,0.));
#417=DIRECTION('center_axis',(0.,0.,1.));
#418=DIRECTION('ref_axis',(0.707106781186547,0.707106781186548,0.));
#419=DIRECTION('',(0.,-1.,0.));
#420=DIRECTION('',(1.,1.21115239050017E-16,0.));
#421=DIRECTION('center_axis',(0.,0.,-1.));
#422=DIRECTION('ref_axis',(1.,0.,0.));
#423=DIRECTION('',(0.,1.,0.));
#424=DIRECTION('',(-1.,0.,0.));
#425=DIRECTION('center_axis',(1.,0.,0.));
#426=DIRECTION('ref_axis',(0.,1.,0.));
#427=DIRECTION('',(0.,-1.,0.));
#428=DIRECTION('',(0.,0.,-1.));
#429=DIRECTION('center_axis',(0.707106781186548,0.707106781186548,0.));
#430=DIRECTION('ref_axis',(0.,0.,-1.));
#431=DIRECTION('',(-0.707106781186548,0.707106781186548,0.));
#432=DIRECTION('',(0.,0.,1.));
#433=DIRECTION('center_axis',(0.,-1.,0.));
#434=DIRECTION('ref_axis',(-1.,0.,0.));
#435=DIRECTION('',(0.,0.,-1.));
#436=DIRECTION('',(1.,0.,0.));
#437=DIRECTION('center_axis',(0.707106781186547,0.707106781186548,0.));
#438=DIRECTION('ref_axis',(0.,0.,-1.));
#439=DIRECTION('',(-0.707106781186548,0.707106781186547,0.));
#440=DIRECTION('',(0.,0.,1.));
#441=DIRECTION('',(0.,0.,-1.));
#442=DIRECTION('center_axis',(-1.,-2.73285667600039E-16,0.));
#443=DIRECTION('ref_axis',(-2.73285667600039E-16,1.,0.));
#444=DIRECTION('',(0.,0.,1.));
#445=DIRECTION('',(2.73285667600039E-16,-1.,0.));
#446=DIRECTION('center_axis',(0.,0.,1.));
#447=DIRECTION('ref_axis',(1.,0.,0.));
#448=DIRECTION('',(0.,0.,1.));
#449=DIRECTION('center_axis',(0.,0.,1.));
#450=DIRECTION('ref_axis',(1.,0.,0.));
#451=DIRECTION('',(0.,0.,-1.));
#452=DIRECTION('center_axis',(0.,0.,-1.));
#453=DIRECTION('ref_axis',(0.707106781186547,0.707106781186548,0.));
#454=DIRECTION('',(0.,0.,-1.));
#455=DIRECTION('center_axis',(0.,0.,-1.));
#456=DIRECTION('ref_axis',(0.707106781186547,0.707106781186548,0.));
#457=DIRECTION('',(0.,0.,1.));
#458=DIRECTION('center_axis',(0.,1.,0.));
#459=DIRECTION('ref_axis',(1.,0.,0.));
#460=DIRECTION('',(0.,0.,1.));
#461=DIRECTION('',(-1.,0.,0.));
#462=DIRECTION('center_axis',(0.,0.,-1.));
#463=DIRECTION('ref_axis',(-0.707106781186546,-0.707106781186549,0.));
#464=DIRECTION('',(0.,0.,-1.));
#465=DIRECTION('center_axis',(0.,0.,-1.));
#466=DIRECTION('ref_axis',(-0.707106781186546,-0.707106781186549,0.));
#467=DIRECTION('center_axis',(2.22044604925032E-16,-1.,0.));
#468=DIRECTION('ref_axis',(-1.,-2.22044604925032E-16,0.));
#469=DIRECTION('',(1.,2.22044604925032E-16,0.));
#470=DIRECTION('center_axis',(-1.21115239050017E-16,1.,0.));
#471=DIRECTION('ref_axis',(1.,1.21115239050017E-16,0.));
#472=DIRECTION('',(0.,0.,1.));
#473=DIRECTION('',(-1.,-1.21115239050017E-16,0.));
#474=DIRECTION('center_axis',(1.,0.,0.));
#475=DIRECTION('ref_axis',(0.,-1.,0.));
#476=DIRECTION('',(0.,-1.,0.));
#477=DIRECTION('center_axis',(1.,0.,0.));
#478=DIRECTION('ref_axis',(0.,-1.,0.));
#479=DIRECTION('',(0.,1.,0.));
#480=DIRECTION('center_axis',(0.,1.,0.));
#481=DIRECTION('ref_axis',(-1.,0.,0.));
#482=DIRECTION('',(1.,0.,0.));
#483=DIRECTION('',(0.,0.,1.));
#484=DIRECTION('center_axis',(0.,0.,-1.));
#485=DIRECTION('ref_axis',(-1.,0.,0.));
#486=DIRECTION('',(0.,1.,0.));
#487=DIRECTION('center_axis',(-1.,0.,0.));
#488=DIRECTION('ref_axis',(0.,-1.,0.));
#489=CARTESIAN_POINT('',(0.,0.,0.));
#490=CARTESIAN_POINT('Origin',(167.5,-49.,5.));
#491=CARTESIAN_POINT('',(165.,-51.5,-10.));
#492=CARTESIAN_POINT('',(170.,-46.5,-10.));
#493=CARTESIAN_POINT('',(137.875,-78.625,-10.));
#494=CARTESIAN_POINT('',(170.,-46.5,10.));
#495=CARTESIAN_POINT('',(170.,-46.5,5.));
#496=CARTESIAN_POINT('',(165.,-51.5,10.));
#497=CARTESIAN_POINT('',(137.875,-78.625,10.));
#498=CARTESIAN_POINT('',(165.,-51.5,5.));
#499=CARTESIAN_POINT('Origin',(3.5527136788005E-14,8.88178419700125E-15,
10.));
#500=CARTESIAN_POINT('',(170.,-22.5,10.));
#501=CARTESIAN_POINT('',(170.,-47.5,10.));
#502=CARTESIAN_POINT('',(165.,-17.5,10.));
#503=CARTESIAN_POINT('',(120.625,26.875,10.));
#504=CARTESIAN_POINT('',(154.,-17.5,10.));
#505=CARTESIAN_POINT('',(85.,-17.5,10.));
#506=CARTESIAN_POINT('',(150.,-13.5,10.));
#507=CARTESIAN_POINT('Origin',(154.,-13.5,10.));
#508=CARTESIAN_POINT('',(150.,37.5,10.));
#509=CARTESIAN_POINT('',(150.,-8.74999999999998,10.));
#510=CARTESIAN_POINT('',(140.,47.5,10.));
#511=CARTESIAN_POINT('',(119.375,68.125,10.));
#512=CARTESIAN_POINT('',(-170.,47.5,10.));
#513=CARTESIAN_POINT('',(-170.,47.5,10.));
#514=CARTESIAN_POINT('',(-170.,27.5,10.));
#515=CARTESIAN_POINT('',(-170.,-47.5,10.));
#516=CARTESIAN_POINT('',(-144.,27.5,10.));
#517=CARTESIAN_POINT('',(-85.,27.5,10.));
#518=CARTESIAN_POINT('',(-140.,23.5,10.));
#519=CARTESIAN_POINT('Origin',(-144.,23.5,10.));
#520=CARTESIAN_POINT('',(-140.,-44.5,10.));
#521=CARTESIAN_POINT('',(-140.,13.75,10.));
#522=CARTESIAN_POINT('',(79.,-44.5,10.));
#523=CARTESIAN_POINT('',(-70.,-44.5,10.));
#524=CARTESIAN_POINT('',(80.,-45.5,10.));
#525=CARTESIAN_POINT('Origin',(80.,-44.5,10.));
#526=CARTESIAN_POINT('',(80.,-51.5,10.));
#527=CARTESIAN_POINT('',(80.,-51.5,10.));
#528=CARTESIAN_POINT('',(170.,-51.5,10.));
#529=CARTESIAN_POINT('Origin',(170.,-47.5,0.));
#530=CARTESIAN_POINT('',(170.,-22.5,-10.));
#531=CARTESIAN_POINT('',(170.,47.5,-10.));
#532=CARTESIAN_POINT('',(170.,-22.5,5.));
#533=CARTESIAN_POINT('Origin',(167.5,-20.,5.));
#534=CARTESIAN_POINT('',(165.,-17.5,-10.));
#535=CARTESIAN_POINT('',(120.625,26.875,-10.));
#536=CARTESIAN_POINT('',(165.,-17.5,5.));
#537=CARTESIAN_POINT('Origin',(170.,-51.5,10.));
#538=CARTESIAN_POINT('',(80.,-51.5,-10.));
#539=CARTESIAN_POINT('',(80.,-51.5,10.));
#540=CARTESIAN_POINT('',(147.5,-51.5,-10.));
#541=CARTESIAN_POINT('Origin',(145.,42.5,5.));
#542=CARTESIAN_POINT('',(150.,37.5,-10.));
#543=CARTESIAN_POINT('',(140.,47.5,-10.));
#544=CARTESIAN_POINT('',(119.375,68.125,-10.));
#545=CARTESIAN_POINT('',(140.,47.5,5.));
#546=CARTESIAN_POINT('',(150.,37.5,5.));
#547=CARTESIAN_POINT('Origin',(150.,-17.5,10.));
#548=CARTESIAN_POINT('',(150.,-13.5,-10.));
#549=CARTESIAN_POINT('',(150.,-13.5,10.));
#550=CARTESIAN_POINT('',(150.,-8.74999999999998,-10.));
#551=CARTESIAN_POINT('Origin',(80.,-44.5,-343.588744164743));
#552=CARTESIAN_POINT('',(79.,-44.5,-10.));
#553=CARTESIAN_POINT('',(79.,-44.5,-343.588744164743));
#554=CARTESIAN_POINT('',(80.,-45.5,-10.));
#555=CARTESIAN_POINT('Origin',(80.,-44.5,-10.));
#556=CARTESIAN_POINT('',(80.,-45.5,-343.588744164743));
#557=CARTESIAN_POINT('Origin',(-144.,23.5,10.));
#558=CARTESIAN_POINT('',(-144.,27.5,-10.));
#559=CARTESIAN_POINT('',(-144.,27.5,10.));
#560=CARTESIAN_POINT('',(-140.,23.5,-10.));
#561=CARTESIAN_POINT('Origin',(-144.,23.5,-10.));
#562=CARTESIAN_POINT('',(-140.,23.5,10.));
#563=CARTESIAN_POINT('Origin',(-170.,27.5,10.));
#564=CARTESIAN_POINT('',(-170.,27.5,-10.));
#565=CARTESIAN_POINT('',(-170.,27.5,5.));
#566=CARTESIAN_POINT('',(-85.,27.5,-10.));
#567=CARTESIAN_POINT('Origin',(154.,-13.5,10.));
#568=CARTESIAN_POINT('',(154.,-17.5,-10.));
#569=CARTESIAN_POINT('',(154.,-17.5,10.));
#570=CARTESIAN_POINT('Origin',(154.,-13.5,-10.));
#571=CARTESIAN_POINT('Origin',(170.,-17.5,10.));
#572=CARTESIAN_POINT('',(85.,-17.5,-10.));
#573=CARTESIAN_POINT('Origin',(-140.,-44.5,10.));
#574=CARTESIAN_POINT('',(-140.,-44.5,-10.));
#575=CARTESIAN_POINT('',(-140.,-44.5,10.));
#576=CARTESIAN_POINT('',(-70.,-44.5,-10.));
#577=CARTESIAN_POINT('Origin',(80.,-44.5,10.));
#578=CARTESIAN_POINT('',(80.,-50.5,-10.));
#579=CARTESIAN_POINT('Origin',(-140.,27.5,10.));
#580=CARTESIAN_POINT('',(-140.,13.75,-10.));
#581=CARTESIAN_POINT('Origin',(170.,47.5,0.));
#582=CARTESIAN_POINT('',(-170.,47.5,-10.));
#583=CARTESIAN_POINT('',(-170.,47.5,-10.));
#584=CARTESIAN_POINT('',(-170.,47.5,0.));
#585=CARTESIAN_POINT('Origin',(3.5527136788005E-14,8.88178419700125E-15,
-10.));
#586=CARTESIAN_POINT('',(-170.,-47.5,-10.));
#587=CARTESIAN_POINT('Origin',(-170.,47.5,0.));
#588=UNCERTAINTY_MEASURE_WITH_UNIT(LENGTH_MEASURE(0.01),#592,
'DISTANCE_ACCURACY_VALUE',
'Maximum model space distance between geometric entities at asserted c
onnectivities');
#589=UNCERTAINTY_MEASURE_WITH_UNIT(LENGTH_MEASURE(0.01),#592,
'DISTANCE_ACCURACY_VALUE',
'Maximum model space distance between geometric entities at asserted c
onnectivities');
#590=(
GEOMETRIC_REPRESENTATION_CONTEXT(3)
GLOBAL_UNCERTAINTY_ASSIGNED_CONTEXT((#588))
GLOBAL_UNIT_ASSIGNED_CONTEXT((#592,#595,#594))
REPRESENTATION_CONTEXT('','3D')
);
#591=(
GEOMETRIC_REPRESENTATION_CONTEXT(3)
GLOBAL_UNCERTAINTY_ASSIGNED_CONTEXT((#589))
GLOBAL_UNIT_ASSIGNED_CONTEXT((#592,#595,#594))
REPRESENTATION_CONTEXT('','3D')
);
#592=(
LENGTH_UNIT()
NAMED_UNIT(*)
SI_UNIT(.MILLI.,.METRE.)
);
#593=(
LENGTH_UNIT()
NAMED_UNIT(*)
SI_UNIT(.CENTI.,.METRE.)
);
#594=(
NAMED_UNIT(*)
SI_UNIT($,.STERADIAN.)
SOLID_ANGLE_UNIT()
);
#595=(
NAMED_UNIT(*)
PLANE_ANGLE_UNIT()
SI_UNIT($,.RADIAN.)
);
#596=SHAPE_DEFINITION_REPRESENTATION(#597,#598);
#597=PRODUCT_DEFINITION_SHAPE('',$,#600);
#598=SHAPE_REPRESENTATION('',(#372),#590);
#599=PRODUCT_DEFINITION_CONTEXT('part definition',#604,'design');
#600=PRODUCT_DEFINITION('319-20-09-29-09 ',
'319-20-09-29-09 Verstrebung',#601,#599);
#601=PRODUCT_DEFINITION_FORMATION('',$,#606);
#602=PRODUCT_RELATED_PRODUCT_CATEGORY('319-20-09-29-09 Verstrebung',
'319-20-09-29-09 Verstrebung',(#606));
#603=APPLICATION_PROTOCOL_DEFINITION('international standard',
'automotive_design',2009,#604);
#604=APPLICATION_CONTEXT(
'Core Data for Automotive Mechanical Design Process');
#605=PRODUCT_CONTEXT('part definition',#604,'mechanical');
#606=PRODUCT('319-20-09-29-09 ','319-20-09-29-09 Verstrebung',
'Verstrebung',(#605));
#607=PRESENTATION_STYLE_ASSIGNMENT((#608));
#608=SURFACE_STYLE_USAGE(.BOTH.,#609);
#609=SURFACE_SIDE_STYLE('',(#610));
#610=SURFACE_STYLE_FILL_AREA(#611);
#611=FILL_AREA_STYLE('',(#612));
#612=FILL_AREA_STYLE_COLOUR('',#613);
#613=COLOUR_RGB('',0.749019607843137,0.749019607843137,0.749019607843137);
ENDSEC;
END-ISO-10303-21;
