0
SECTION
2
HEADER
9
$ACADVER
1
AC1006
9
$LIMMAX
10
745.000
20
618.500
9
$LIMMIN
10
-45.000
20
3.500
0
ENDSEC
0
SECTION
2
TABLES
0
TABLE
2
LTYPE
0
LTYPE
70
1
2
CONTINUOUS
3
Solid Line
72
65
73
0
40
0.000
0
ENDTAB
0
TABLE
2
LAYER
70
120
0
LAYER
2
1
70
64
62
1
6
CONTINUOUS
0
LAYER
2
0
70
64
62
7
6
CONTINUOUS
0
ENDTAB
0
TABLE
2
STYLE
70
1
0
STYLE
2
STANDARD
70
0
40
0.000
41
1.000
50
0.000
71
0
42
0.200
3
TXT
0
ENDTAB
0
TABLE
2
VIEW
70
0
0
ENDTAB
0
ENDSEC
0
SECTION
2
BLOCKS
0
BLOCK
8
0
2
CORNER_9X1_75
70
64
10
0.000
20
0.000
0
TEXT
8
1
62
1
10
4.458
20
-4.079
11
6.036
21
-4.079
40
2.000
41
0.547
50
0.000
72
5
1
9.
0
LINE
8
0
10
0.000
20
0.000
11
8.500
21
0.000
0
POLYLINE
8
0
66
1
70
0
0
VERTEX
8
0
10
8.500
20
0.000
42
-0.414
70
0
0
VERTEX
8
0
10
9.000
20
-0.500
42
0.000
70
0
0
SEQEND
8
0
0
LINE
8
0
10
9.000
20
-0.500
11
9.000
21
-1.750
0
LINE
8
0
10
-0.750
20
0.000
11
0.000
21
0.000
0
LINE
8
0
10
9.000
20
-1.750
11
9.000
21
-5.750
0
ENDBLK
0
BLOCK
8
0
2
X2
70
64
10
0.000
20
0.000
0
CIRCLE
8
0
10
0.000
20
0.000
40
2.000
0
CIRCLE
8
0
10
0.000
20
0.000
40
2.350
0
CIRCLE
8
0
10
0.000
20
0.000
40
9.500
0
LINE
8
0
10
-3.536
20
3.536
11
3.536
21
-3.536
0
LINE
8
0
10
3.536
20
3.536
11
-3.536
21
-3.536
0
CIRCLE
8
0
10
0.000
20
0.000
40
2.250
0
LINE
8
0
10
-3.182
20
3.182
11
3.182
21
-3.182
0
LINE
8
0
10
3.182
20
3.182
11
-3.182
21
-3.182
0
TEXT
8
0
10
-1.157
20
-8.072
11
1.093
21
-8.072
40
3.000
41
1.140
50
0.000
72
5
1
5
0
ENDBLK
0
BLOCK
8
0
2
A
70
64
10
0.000
20
0.000
0
LINE
8
0
10
-34.407
20
166.500
11
96.271
21
166.500
0
LINE
8
0
10
-34.407
20
170.500
11
96.271
21
170.500
0
LINE
8
0
10
-40.250
20
33.500
11
-40.250
21
160.500
0
LINE
8
0
10
-102.250
20
-126.714
11
-102.250
21
-14.470
0
LINE
8
0
10
-40.250
20
-133.500
11
-82.758
21
-133.500
0
LINE
8
0
10
-102.250
20
-126.714
11
-101.615
21
-127.675
0
LINE
8
0
10
-101.615
20
-127.675
11
-100.811
21
-128.742
0
LINE
8
0
10
-100.811
20
-128.742
11
-99.879
21
-129.681
0
LINE
8
0
10
-99.879
20
-129.681
11
-98.863
21
-130.492
0
LINE
8
0
10
-98.863
20
-130.492
11
-97.763
21
-131.175
0
LINE
8
0
10
-97.763
20
-131.175
11
-96.577
21
-131.728
0
LINE
8
0
10
-96.577
20
-131.728
11
-95.349
21
-132.154
0
LINE
8
0
10
-95.349
20
-132.154
11
-94.080
21
-132.410
0
LINE
8
0
10
-94.080
20
-132.410
11
-92.767
21
-132.505
0
LINE
8
0
10
-92.767
20
-8.495
11
-94.080
21
-8.623
0
LINE
8
0
10
-94.080
20
-8.623
11
-95.349
21
-8.879
0
LINE
8
0
10
-95.349
20
-8.879
11
-96.577
21
-9.306
0
LINE
8
0
10
-96.577
20
-9.306
11
-97.763
21
-9.861
0
LINE
8
0
10
-97.763
20
-9.861
11
-98.863
21
-10.543
0
LINE
8
0
10
-98.863
20
-10.543
11
-99.879
21
-11.354
0
LINE
8
0
10
-99.879
20
-11.354
11
-100.811
21
-12.294
0
LINE
8
0
10
-100.811
20
-12.294
11
-101.615
21
-13.317
0
LINE
8
0
10
-101.615
20
-13.317
11
-102.250
21
-14.470
0
LINE
8
0
10
-40.250
20
-7.500
11
-82.758
21
-7.500
0
LINE
8
0
10
-40.251
20
-175.500
11
102.250
21
-175.500
0
LINE
8
0
10
102.249
20
160.500
11
102.250
21
-175.500
0
LINE
8
0
10
-82.751
20
-132.505
11
-92.767
21
-132.505
0
LINE
8
0
10
-65.250
20
-165.739
11
-65.250
21
-133.500
0
LINE
8
0
10
-53.023
20
-168.850
11
-65.250
21
-165.739
0
LINE
8
0
10
-53.023
20
-168.850
11
-47.250
21
-174.500
0
LINE
8
0
10
-47.250
20
-174.500
11
-40.250
21
-174.500
0
LINE
8
0
10
-65.250
20
24.718
11
-65.250
21
-7.500
0
LINE
8
0
10
-53.023
20
27.836
11
-65.250
21
24.718
0
LINE
8
0
10
-53.023
20
27.836
11
-47.250
21
33.500
0
LINE
8
0
10
-47.250
20
33.500
11
-40.250
21
33.500
0
LINE
8
0
10
-40.250
20
160.500
11
-38.250
21
175.500
0
LINE
8
0
10
100.250
20
175.499
11
102.250
21
160.499
0
LINE
8
0
10
100.250
20
175.499
11
-38.250
21
175.499
0
LINE
8
0
10
-40.750
20
-133.500
11
-40.750
21
-7.500
0
LINE
8
0
10
-82.250
20
-124.500
11
-82.250
21
-16.500
0
LINE
8
0
10
-40.250
20
-175.500
11
-40.250
21
-174.500
0
LINE
8
0
10
-40.250
20
-174.500
11
-40.250
21
-133.500
0
LINE
8
0
10
-40.250
20
33.500
11
-40.250
21
-7.500
0
LINE
8
0
10
-40.250
20
-7.500
11
102.249
21
-7.500
0
LINE
8
0
10
-40.250
20
34.500
11
102.249
21
34.500
0
LINE
8
0
10
-40.251
20
160.500
11
102.250
21
160.500
0
INSERT
8
0
2
CORNER_9X1_75
10
-82.758
20
-133.500
41
1.000
42
1.000
50
90.000
0
INSERT
8
0
2
CORNER_9X1_75
10
-82.758
20
-7.500
41
-1.000
42
1.000
50
90.000
0
LINE
8
0
10
-92.767
20
-8.495
11
-82.758
21
-8.495
0
LINE
8
0
10
-40.250
20
-133.500
11
102.250
21
-133.500
0
INSERT
8
0
2
X2
10
-62.160
20
-71.975
41
1.000
42
1.000
50
0.000
0
INSERT
8
0
2
X2
10
67.697
20
-154.519
41
1.000
42
1.000
50
0.000
0
INSERT
8
0
2
X2
10
31.961
20
14.596
41
1.000
42
1.000
50
0.000
0
INSERT
8
0
2
X2
10
75.246
20
134.890
41
1.000
42
1.000
50
0.000
0
INSERT
8
0
2
X2
10
-13.338
20
134.890
41
1.000
42
1.000
50
0.000
0
ENDBLK
0
BLOCK
8
0
2
HOLDER_PROFI
70
64
10
0.000
20
0.000
0
LINE
8
0
10
-38.333
20
-35.000
11
38.333
21
-35.000
0
ARC
8
0
10
38.333
20
-23.333
40
11.667
50
270.000
51
360.000
0
LINE
8
0
10
50.000
20
-23.333
11
50.000
21
-4.166
0
ARC
8
0
10
39.375
20
-15.632
40
15.632
50
47.180
51
132.820
0
ARC
8
0
10
26.250
20
-0.010
40
4.850
50
238.971
51
301.029
0
ARC
8
0
10
13.125
20
-15.632
40
15.632
50
47.180
51
132.820
0
ARC
8
0
10
0.000
20
-0.010
40
4.850
50
238.971
51
301.029
0
ARC
8
0
10
-13.125
20
-15.632
40
15.632
50
47.180
51
132.820
0
ARC
8
0
10
-26.250
20
-0.010
40
4.850
50
238.971
51
301.029
0
ARC
8
0
10
-39.375
20
-15.632
40
15.632
50
47.180
51
132.820
0
LINE
8
0
10
-50.000
20
-4.166
11
-50.000
21
-23.333
0
ARC
8
0
10
-38.333
20
-23.333
40
11.667
50
180.000
51
270.000
0
LINE
8
0
10
0.000
20
0.000
11
0.000
21
-2.500
0
LINE
8
0
10
-2.500
20
0.000
11
2.500
21
0.000
0
ENDBLK
0
BLOCK
8
0
2
DI_LINE_100MM
70
64
10
0.000
20
0.000
0
LINE
8
0
10
0.000
20
100.000
11
0.000
21
0.000
0
ENDBLK
0
BLOCK
8
0
2
NUT_M5
70
64
10
0.000
20
0.000
0
CIRCLE
8
0
10
0.000
20
0.000
40
3.450
0
CIRCLE
8
0
10
0.000
20
0.000
40
8.500
0
LINE
8
0
10
-5.450
20
0.000
11
-3.450
21
0.000
0
ENDBLK
0
ENDSEC
0
SECTION
2
ENTITIES
0
INSERT
8
0
2
A
10
570.500
20
217.500
41
-1.000
42
1.000
50
0.000
0
INSERT
8
0
2
A
10
350.000
20
217.500
41
-1.000
42
1.000
50
0.000
0
INSERT
8
0
2
A
10
129.500
20
217.500
41
-1.000
42
1.000
50
0.000
0
POLYLINE
8
0
66
1
70
0
0
VERTEX
8
0
10
-38.000
20
3.500
42
-0.414
70
0
0
VERTEX
8
0
10
-45.000
20
10.500
42
0.000
70
0
0
SEQEND
8
0
0
LINE
8
0
10
-45.000
20
10.500
11
-45.000
21
611.500
0
POLYLINE
8
0
66
1
70
0
0
VERTEX
8
0
10
-45.000
20
611.500
42
-0.414
70
0
0
VERTEX
8
0
10
-38.000
20
618.500
42
0.000
70
0
0
SEQEND
8
0
0
LINE
8
0
10
-38.000
20
618.500
11
738.000
21
618.500
0
POLYLINE
8
0
66
1
70
0
0
VERTEX
8
0
10
738.000
20
618.500
42
-0.414
70
0
0
VERTEX
8
0
10
745.000
20
611.500
42
0.000
70
0
0
SEQEND
8
0
0
LINE
8
0
10
745.000
20
611.500
11
745.000
21
10.500
0
POLYLINE
8
0
66
1
70
0
0
VERTEX
8
0
10
745.000
20
10.500
42
-0.414
70
0
0
VERTEX
8
0
10
738.000
20
3.500
42
0.000
70
0
0
SEQEND
8
0
0
LINE
8
0
10
738.000
20
3.500
11
-38.000
21
3.500
0
INSERT
8
0
2
HOLDER_PROFI
10
25.000
20
598.500
41
1.000
42
1.000
50
0.000
0
INSERT
8
0
2
HOLDER_PROFI
10
675.000
20
598.500
41
1.000
42
1.000
50
0.000
0
INSERT
8
0
2
DI_LINE_100MM
10
-45.000
20
9.500
41
1.000
42
1.000
50
270.000
0
INSERT
8
0
2
DI_LINE_100MM
10
745.000
20
9.500
41
1.000
42
1.000
50
90.000
0
INSERT
8
0
2
DI_LINE_100MM
10
350.000
20
3.500
41
1.000
42
1.000
50
0.000
0
INSERT
8
0
2
NUT_M5
10
49.874
20
533.595
41
1.000
42
1.000
50
0.000
0
INSERT
8
0
2
NUT_M5
10
649.874
20
533.595
41
1.000
42
1.000
50
0.000
0
INSERT
8
0
2
NUT_M5
10
449.874
20
233.595
41
1.000
42
1.000
50
0.000
0
TEXT
8
0
10
129.803
20
560.071
11
168.970
21
560.071
40
7.000
41
0.951
50
0.000
72
5
1
Fermata
0
TEXT
8
0
10
129.803
20
548.025
11
279.803
21
548.025
40
7.000
41
0.972
50
0.000
72
5
1
SCD 4-A_3x_50x70 Greif30
0
LINE
8
0
10
-25.000
20
431.000
11
725.000
21
431.000
0
LINE
8
0
10
725.000
20
512.250
11
-25.000
21
512.250
0
LINE
8
0
10
117.250
20
593.500
11
582.750
21
593.500
0
LINE
8
0
10
350.000
20
3.500
11
350.000
21
10.500
0
LINE
8
0
10
45.787
20
392.999
11
45.787
21
431.000
0
LINE
8
0
10
151.110
20
392.999
11
151.110
21
431.000
0
LINE
8
0
10
266.287
20
392.999
11
266.287
21
431.000
0
LINE
8
0
10
371.610
20
392.999
11
371.610
21
431.000
0
LINE
8
0
10
486.787
20
392.999
11
486.787
21
431.000
0
LINE
8
0
10
592.110
20
392.999
11
592.110
21
431.000
0
LINE
8
0
10
610.750
20
362.721
11
740.000
21
362.721
0
LINE
8
0
10
610.750
20
264.921
11
740.000
21
264.921
0
LINE
8
0
10
672.750
20
193.453
11
740.000
21
193.453
0
LINE
8
0
10
672.750
20
102.236
11
740.000
21
102.236
0
LINE
8
0
10
452.250
20
193.453
11
468.250
21
193.453
0
LINE
8
0
10
452.250
20
102.236
11
468.250
21
102.236
0
LINE
8
0
10
390.250
20
264.921
11
468.250
21
264.921
0
LINE
8
0
10
390.250
20
362.721
11
468.250
21
362.721
0
LINE
8
0
10
169.750
20
362.721
11
247.750
21
362.721
0
LINE
8
0
10
169.750
20
264.921
11
247.750
21
264.921
0
LINE
8
0
10
231.750
20
193.453
11
247.750
21
193.453
0
LINE
8
0
10
231.750
20
102.236
11
247.750
21
102.236
0
LINE
8
0
10
27.250
20
362.721
11
-40.000
21
362.721
0
LINE
8
0
10
27.250
20
264.921
11
-40.000
21
264.921
0
LINE
8
0
10
27.250
20
193.453
11
-40.000
21
193.453
0
LINE
8
0
10
27.250
20
102.236
11
-40.000
21
102.236
0
LINE
8
0
10
-40.000
20
359.721
11
-40.000
21
365.721
0
LINE
8
0
10
-40.000
20
261.921
11
-40.000
21
267.921
0
LINE
8
0
10
-40.000
20
190.453
11
-40.000
21
196.453
0
LINE
8
0
10
-40.000
20
99.236
11
-40.000
21
105.236
0
LINE
8
0
10
740.000
20
99.236
11
740.000
21
105.236
0
LINE
8
0
10
740.000
20
190.453
11
740.000
21
196.453
0
LINE
8
0
10
740.000
20
261.921
11
740.000
21
267.921
0
LINE
8
0
10
740.000
20
359.721
11
740.000
21
365.721
0
INSERT
8
0
2
NUT_M5
10
50.000
20
233.500
41
1.000
42
1.000
50
0.000
0
ENDSEC
0
EOF
