  0
SECTION
  2
HEADER
  9
$ACADVER
  1
AC1009
  9
$LIMMIN
 10
-0.000000
 20
0.000000
  9
$LIMMAX
 10
70.244588
 20
22.283134
  9
$MEASUREMENT
 70
1
  0
ENDSEC
  0
SECTION
  2
TABLES
  0
TABLE
  2
LTYPE
 70
     4
  0
LTYPE
  2
CONTINUOUS
 70
     0
  3
Solid line
 72
     65
 73
     0
 40
0.000000
  0
LTYPE
  2
HIDDEN
 70
     0
  3
 _ _ _ _ _ _ _ _ _ _ _
 72
     65
 73
     2
 40
0.375000
 49
0.250000
 49
-0.125000
  0
LTYPE
  2
DASHED
 70
     0
  3
 ___ ___ ___ ___ ___ ___ ___ 
 72
     65
 73
     2
 40
0.750000
 49
0.500000
 49
-0.250000
  0
LTYPE
  2
CENTER
 70
     0
  3
___ _ ___ _ ___ _ ___
 72
     65
 73
     4
 40
2.000000
 49
1.250000
 49
-0.250000
 49
0.250000
 49
-0.250000
  0
LTYPE
  2
BORDER
 70
     0
  3
___ ___ . ___ ___ . ___ ___
 72
     65
 73
     6
 40
1.750000
 49
0.500000
 49
-0.250000
 49
0.500000
 49
-0.250000
 49
0.000000
 49
-0.250000
  0
LTYPE
  2
DOT
 70
     0
  3
.................
 72
     65
 73
     2
 40
0.250000
 49
0.000000
 49
-0.250000
  0
LTYPE
  2
DASHDOT
 70
     0
  3
__ . __ . __ . __
 72
     65
 73
     4
 40
1.000000
 49
0.500000
 49
-0.250000
 49
0.000000
 49
-0.250000
  0
LTYPE
  2
DIVIDE
 70
     0
  3
___ .. ___ .. ___ .. ___
 72
     65
 73
     6
 40
1.250000
 49
0.500000
 49
-0.250000
 49
0.000000
 49
-0.250000
 49
0.000000
 49
-0.250000
  0
ENDTAB
  0
TABLE
  2
LAYER
 70
     8
  0
LAYER
  2
BLACK
 70
     0
 62
     1
  6
CONTINUOUS
  0
LAYER
  2
WHITE
 70
     0
 62
     7
  6
CONTINUOUS
  0
LAYER
  2
RED
 70
     0
 62
     1
  6
CONTINUOUS
  0
LAYER
  2
YELLOW
 70
     0
 62
     2
  6
CONTINUOUS
  0
LAYER
  2
GREEN
 70
     0
 62
     3
  6
CONTINUOUS
  0
LAYER
  2
CYAN
 70
     0
 62
     4
  6
CONTINUOUS
  0
LAYER
  2
BLUE
 70
     0
 62
     5
  6
CONTINUOUS
  0
LAYER
  2
MAGENTA
 70
     0
 62
     6
  6
CONTINUOUS
  0
ENDTAB
  0
TABLE
  2
APPID
 70
     1
  0
APPID
  2
TC_BEND_DATA
 70
     0
  0
ENDTAB
  0
ENDSEC
  0
SECTION
  2
BLOCKS
  0
ENDSEC
  0
SECTION
  2
ENTITIES
  0
ARC
  8
WHITE
 10
27.836068
 20
5.190846
 30
0.000000
 40
1.000000
 50
-145.250085
 51
-84.946066
  6
CONTINUOUS
  0
LINE
  8
WHITE
 10
27.924161
 20
4.194734
 30
0.000000
 11
67.052916
 21
7.655174
 31
0.000000
  6
CONTINUOUS
  0
ARC
  8
WHITE
 10
66.744588
 20
11.141567
 30
0.000000
 40
3.500000
 50
-84.946051
 51
84.946066
  6
CONTINUOUS
  0
LINE
  8
WHITE
 10
67.052915
 20
14.627960
 30
0.000000
 11
27.924161
 21
18.088400
 31
0.000000
  6
CONTINUOUS
  0
ARC
  8
WHITE
 10
27.836068
 20
17.092288
 30
0.000000
 40
1.000000
 50
84.946090
 51
145.250060
  6
CONTINUOUS
  0
ARC
  8
WHITE
 10
20.226257
 20
22.410368
 30
0.000000
 40
8.283928
 50
-168.062161
 51
-34.971451
  6
CONTINUOUS
  0
ARC
  8
WHITE
 10
10.164744
 20
20.283134
 30
0.000000
 40
2.000000
 50
11.937839
 51
96.461056
  6
CONTINUOUS
  0
ARC
  8
WHITE
 10
11.200000
 20
11.141567
 30
0.000000
 40
11.200000
 50
96.461056
 51
263.538946
  6
CONTINUOUS
  0
ARC
  8
WHITE
 10
10.164744
 20
2.000000
 30
0.000000
 40
2.000000
 50
-96.461054
 51
-11.937839
  6
CONTINUOUS
  0
ARC
  8
WHITE
 10
20.226257
 20
-0.127234
 30
0.000000
 40
8.283928
 50
34.971454
 51
168.062161
  6
CONTINUOUS
  0
CIRCLE
  8
WHITE
 10
66.744588
 20
11.141567
 30
0.000000
 40
2.500000
  6
CONTINUOUS
  0
ENDSEC
  0
EOF
