  0
SECTION
  2
HEADER
  9
$ACADVER
  1
AC1009
  9
$DWGCODEPAGE
  3
ansi_1250
  9
$INSBASE
 10
0.0
 20
0.0
 30
0.0
  9
$EXTMIN
 10
1.000000000000000E+20
 20
1.000000000000000E+20
 30
1.000000000000000E+20
  9
$EXTMAX
 10
-1.000000000000000E+20
 20
-1.000000000000000E+20
 30
-1.000000000000000E+20
  9
$LIMMIN
 10
0.0
 20
0.0
  9
$LIMMAX
 10
12.0
 20
9.0
  9
$ORTHOMODE
 70
     0
  9
$REGENMODE
 70
     1
  9
$FILLMODE
 70
     1
  9
$QTEXTMODE
 70
     0
  9
$MIRRTEXT
 70
     1
  9
$DRAGMODE
 70
     2
  9
$LTSCALE
 40
1.0
  9
$OSMODE
 70
    37
  9
$ATTMODE
 70
     1
  9
$TEXTSIZE
 40
0.2
  9
$TRACEWID
 40
0.05
  9
$TEXTSTYLE
  7
STANDARD
  9
$CLAYER
  8
0
  9
$CELTYPE
  6
BYLAYER
  9
$CECOLOR
 62
   256
  9
$DIMSCALE
 40
1.0
  9
$DIMASZ
 40
0.18
  9
$DIMEXO
 40
0.0625
  9
$DIMDLI
 40
0.38
  9
$DIMRND
 40
0.0
  9
$DIMDLE
 40
0.0
  9
$DIMEXE
 40
0.18
  9
$DIMTP
 40
0.0
  9
$DIMTM
 40
0.0
  9
$DIMTXT
 40
0.18
  9
$DIMCEN
 40
0.09
  9
$DIMTSZ
 40
0.0
  9
$DIMTOL
 70
     0
  9
$DIMLIM
 70
     0
  9
$DIMTIH
 70
     1
  9
$DIMTOH
 70
     1
  9
$DIMSE1
 70
     0
  9
$DIMSE2
 70
     0
  9
$DIMTAD
 70
     0
  9
$DIMZIN
 70
     0
  9
$DIMBLK
  1

  9
$DIMASO
 70
     1
  9
$DIMSHO
 70
     1
  9
$DIMPOST
  1

  9
$DIMAPOST
  1

  9
$DIMALT
 70
     0
  9
$DIMALTD
 70
     2
  9
$DIMALTF
 40
25.4
  9
$DIMLFAC
 40
1.0
  9
$DIMTOFL
 70
     0
  9
$DIMTVP
 40
0.0
  9
$DIMTIX
 70
     0
  9
$DIMSOXD
 70
     0
  9
$DIMSAH
 70
     0
  9
$DIMBLK1
  1

  9
$DIMBLK2
  1

  9
$DIMSTYLE
  2
STANDARD
  9
$DIMCLRD
 70
     0
  9
$DIMCLRE
 70
     0
  9
$DIMCLRT
 70
     0
  9
$DIMTFAC
 40
1.0
  9
$DIMGAP
 40
0.09
  9
$LUNITS
 70
     2
  9
$LUPREC
 70
     4
  9
$SKETCHINC
 40
0.1
  9
$FILLETRAD
 40
0.5
  9
$AUNITS
 70
     0
  9
$AUPREC
 70
     0
  9
$MENU
  1
.
  9
$ELEVATION
 40
0.0
  9
$PELEVATION
 40
0.0
  9
$THICKNESS
 40
0.0
  9
$LIMCHECK
 70
     0
  9
$CHAMFERA
 40
0.5
  9
$CHAMFERB
 40
0.5
  9
$SKPOLY
 70
     0
  9
$TDCREATE
 40
2457122.384881806
  9
$TDUPDATE
 40
2457122.384881806
  9
$TDINDWG
 40
0.0000000116
  9
$TDUSRTIMER
 40
0.0000000116
  9
$USRTIMER
 70
     1
  9
$ANGBASE
 50
0.0
  9
$ANGDIR
 70
     0
  9
$PDMODE
 70
     0
  9
$PDSIZE
 40
0.0
  9
$PLINEWID
 40
0.0
  9
$COORDS
 70
     1
  9
$SPLFRAME
 70
     0
  9
$SPLINETYPE
 70
     6
  9
$SPLINESEGS
 70
     8
  9
$ATTDIA
 70
     0
  9
$ATTREQ
 70
     1
  9
$HANDLING
 70
     1
  9
$HANDSEED
  5
E9
  9
$SURFTAB1
 70
     6
  9
$SURFTAB2
 70
     6
  9
$SURFTYPE
 70
     6
  9
$SURFU
 70
     6
  9
$SURFV
 70
     6
  9
$UCSNAME
  2

  9
$UCSORG
 10
0.0
 20
0.0
 30
0.0
  9
$UCSXDIR
 10
1.0
 20
0.0
 30
0.0
  9
$UCSYDIR
 10
0.0
 20
1.0
 30
0.0
  9
$PUCSNAME
  2

  9
$PUCSORG
 10
0.0
 20
0.0
 30
0.0
  9
$PUCSXDIR
 10
1.0
 20
0.0
 30
0.0
  9
$PUCSYDIR
 10
0.0
 20
1.0
 30
0.0
  9
$USERI1
 70
     0
  9
$USERI2
 70
     0
  9
$USERI3
 70
     0
  9
$USERI4
 70
     0
  9
$USERI5
 70
     0
  9
$USERR1
 40
0.0
  9
$USERR2
 40
0.0
  9
$USERR3
 40
0.0
  9
$USERR4
 40
0.0
  9
$USERR5
 40
0.0
  9
$WORLDVIEW
 70
     1
  9
$SHADEDGE
 70
     3
  9
$SHADEDIF
 70
    70
  9
$TILEMODE
 70
     1
  9
$MAXACTVP
 70
    64
  9
$PLIMCHECK
 70
     0
  9
$PEXTMIN
 10
1.000000000000000E+20
 20
1.000000000000000E+20
 30
1.000000000000000E+20
  9
$PEXTMAX
 10
-1.000000000000000E+20
 20
-1.000000000000000E+20
 30
-1.000000000000000E+20
  9
$PLIMMIN
 10
0.0
 20
0.0
  9
$PLIMMAX
 10
12.0
 20
9.0
  9
$UNITMODE
 70
     0
  9
$VISRETAIN
 70
     1
  9
$PLINEGEN
 70
     0
  9
$PSLTSCALE
 70
     1
  0
ENDSEC
  0
SECTION
  2
TABLES
  0
TABLE
  2
VPORT
 70
     1
  0
VPORT
  2
*ACTIVE
 70
     0
 10
0.0
 20
0.0
 11
1.0
 21
1.0
 12
0.0
 22
255.0
 13
0.0
 23
0.0
 14
0.5
 24
0.5
 15
0.5
 25
0.5
 16
0.0
 26
0.0
 36
1.0
 17
0.0
 27
0.0
 37
0.0
 40
560.0
 41
0.9107142857142857
 42
50.0
 43
0.0
 44
0.0
 50
0.0
 51
0.0
 71
     0
 72
   100
 73
     1
 74
     3
 75
     0
 76
     0
 77
     0
 78
     0
  0
ENDTAB
  0
TABLE
  2
LTYPE
 70
     1
  0
LTYPE
  2
CONTINUOUS
 70
     0
  3
Solid line
 72
    65
 73
     0
 40
0.0
  0
ENDTAB
  0
TABLE
  2
LAYER
 70
     1
  0
LAYER
  2
0
 70
     0
 62
     7
  6
CONTINUOUS
  0
ENDTAB
  0
TABLE
  2
STYLE
 70
     1
  0
STYLE
  2
STANDARD
 70
     0
 40
0.0
 41
1.0
 50
0.0
 71
     0
 42
0.2
  3
txt
  4

  0
ENDTAB
  0
TABLE
  2
VIEW
 70
     0
  0
ENDTAB
  0
TABLE
  2
UCS
 70
     0
  0
ENDTAB
  0
TABLE
  2
APPID
 70
     2
  0
APPID
  2
ACAD
 70
     0
  0
APPID
  2
ODA
 70
     0
  0
ENDTAB
  0
TABLE
  2
DIMSTYLE
 70
     1
  0
DIMSTYLE
  2
STANDARD
 70
     0
  3

  4

  5

  6

  7

 40
1.0
 41
0.18
 42
0.0625
 43
0.38
 44
0.18
 45
0.0
 46
0.0
 47
0.0
 48
0.0
140
0.18
141
0.09
142
0.0
143
25.4
144
1.0
145
0.0
146
1.0
147
0.09
 71
     0
 72
     0
 73
     1
 74
     1
 75
     0
 76
     0
 77
     0
 78
     0
170
     0
171
     2
172
     0
173
     0
174
     0
175
     0
176
     0
177
     0
178
     0
  0
ENDTAB
  0
ENDSEC
  0
SECTION
  2
BLOCKS
  0
BLOCK
  8
0
  2
$MODEL_SPACE
 70
     0
 10
0.0
 20
0.0
 30
0.0
  3
$MODEL_SPACE
  1

  0
ENDBLK
  5
21
  8
0
  0
BLOCK
 67
     1
  8
0
  2
$PAPER_SPACE
 70
     0
 10
0.0
 20
0.0
 30
0.0
  3
$PAPER_SPACE
  1

  0
ENDBLK
  5
1D
 67
     1
  8
0
  0
ENDSEC
  0
SECTION
  2
ENTITIES
  0
CIRCLE
  5
3C
  8
0
 10
151.0663
 20
185.55372
 30
0.0
 40
2.5
  0
CIRCLE
  5
3D
  8
0
 10
132.40184
 20
279.38629
 30
0.0
 40
2.5
  0
CIRCLE
  5
3E
  8
0
 10
185.55372
 20
358.9337
 30
0.0
 40
2.5
  0
CIRCLE
  5
3F
  8
0
 10
279.38629
 20
377.59816
 30
0.0
 40
2.5
  0
CIRCLE
  5
40
  8
0
 10
358.9337
 20
324.44628
 30
0.0
 40
2.5
  0
CIRCLE
  5
41
  8
0
 10
377.59816
 20
230.61371
 30
0.0
 40
2.5
  0
CIRCLE
  5
42
  8
0
 10
324.44628
 20
151.0663
 30
0.0
 40
2.5
  0
CIRCLE
  5
43
  8
0
 10
230.61371
 20
132.40184
 30
0.0
 40
2.5
  0
CIRCLE
  5
44
  8
0
 10
255.0
 20
255.0
 30
0.0
 40
255.0
  0
CIRCLE
  5
45
  8
0
 10
255.0
 20
255.0
 30
0.0
 40
215.0
  0
CIRCLE
  5
46
  8
0
 10
255.0
 20
255.0
 30
0.0
 40
105.0
  0
CIRCLE
  5
47
  8
0
 10
255.0
 20
255.0
 30
0.0
 40
145.0
  0
POINT
  5
48
  8
0
 10
255.0
 20
20.0
 30
0.0
  0
POINT
  5
49
  8
0
 10
255.0
 20
130.0
 30
0.0
  0
POINT
  5
4A
  8
0
 10
302.83543
 20
139.51506
 30
0.0
  0
POINT
  5
4B
  8
0
 10
344.93061
 20
37.88831
 30
0.0
  0
POINT
  5
4C
  8
0
 10
343.38835
 20
166.61165
 30
0.0
  0
POINT
  5
4D
  8
0
 10
421.17009
 20
88.82991
 30
0.0
  0
POINT
  5
4E
  8
0
 10
490.0
 20
255.0
 30
0.0
  0
POINT
  5
4F
  8
0
 10
380.0
 20
255.0
 30
0.0
  0
POINT
  5
50
  8
0
 10
472.11169
 20
165.06939
 30
0.0
  0
POINT
  5
51
  8
0
 10
370.48494
 20
207.16457
 30
0.0
  0
POINT
  5
52
  8
0
 10
370.48494
 20
302.83543
 30
0.0
  0
POINT
  5
53
  8
0
 10
472.11169
 20
344.93061
 30
0.0
  0
POINT
  5
54
  8
0
 10
421.17009
 20
421.17009
 30
0.0
  0
POINT
  5
55
  8
0
 10
343.38835
 20
343.38835
 30
0.0
  0
POINT
  5
56
  8
0
 10
344.93061
 20
472.11169
 30
0.0
  0
POINT
  5
57
  8
0
 10
302.83543
 20
370.48494
 30
0.0
  0
POINT
  5
58
  8
0
 10
255.0
 20
380.0
 30
0.0
  0
POINT
  5
59
  8
0
 10
255.0
 20
490.0
 30
0.0
  0
POINT
  5
5A
  8
0
 10
207.16457
 20
370.48494
 30
0.0
  0
POINT
  5
5B
  8
0
 10
165.06939
 20
472.11169
 30
0.0
  0
POINT
  5
5C
  8
0
 10
166.61165
 20
343.38835
 30
0.0
  0
POINT
  5
5D
  8
0
 10
88.82991
 20
421.17009
 30
0.0
  0
POINT
  5
5E
  8
0
 10
37.88831
 20
344.93061
 30
0.0
  0
POINT
  5
5F
  8
0
 10
139.51506
 20
302.83543
 30
0.0
  0
POINT
  5
60
  8
0
 10
139.51506
 20
207.16457
 30
0.0
  0
POINT
  5
61
  8
0
 10
37.88831
 20
165.06939
 30
0.0
  0
POINT
  5
62
  8
0
 10
130.0
 20
255.0
 30
0.0
  0
POINT
  5
63
  8
0
 10
20.0
 20
255.0
 30
0.0
  0
POINT
  5
64
  8
0
 10
88.82991
 20
88.82991
 30
0.0
  0
POINT
  5
65
  8
0
 10
166.61165
 20
166.61165
 30
0.0
  0
POINT
  5
66
  8
0
 10
165.06939
 20
37.88831
 30
0.0
  0
POINT
  5
67
  8
0
 10
207.16457
 20
139.51506
 30
0.0
  0
LINE
  5
68
  8
0
 10
258.1
 20
9.85
 30
0.0
 11
258.1
 21
30.15
 31
0.0
  0
LINE
  5
69
  8
0
 10
258.1
 20
30.15
 30
0.0
 11
251.9
 21
30.15
 31
0.0
  0
LINE
  5
6A
  8
0
 10
251.9
 20
30.15
 30
0.0
 11
251.9
 21
9.85
 31
0.0
  0
LINE
  5
6B
  8
0
 10
251.9
 20
9.85
 30
0.0
 11
258.1
 21
9.85
 31
0.0
  0
LINE
  5
6C
  8
0
 10
258.1
 20
119.85
 30
0.0
 11
258.1
 21
140.15
 31
0.0
  0
LINE
  5
6D
  8
0
 10
258.1
 20
140.15
 30
0.0
 11
251.9
 21
140.15
 31
0.0
  0
LINE
  5
6E
  8
0
 10
251.9
 20
140.15
 30
0.0
 11
251.9
 21
119.85
 31
0.0
  0
LINE
  5
6F
  8
0
 10
251.9
 20
119.85
 30
0.0
 11
258.1
 21
119.85
 31
0.0
  0
LINE
  5
70
  8
0
 10
303.85564
 20
128.95136
 30
0.0
 11
309.58369
 21
131.324
 31
0.0
  0
LINE
  5
71
  8
0
 10
296.08717
 20
147.70612
 30
0.0
 11
303.85564
 21
128.95136
 31
0.0
  0
LINE
  5
72
  8
0
 10
301.81522
 20
150.07875
 30
0.0
 11
296.08717
 21
147.70612
 31
0.0
  0
LINE
  5
73
  8
0
 10
309.58369
 20
131.324
 30
0.0
 11
301.81522
 21
150.07875
 31
0.0
  0
LINE
  5
74
  8
0
 10
345.95082
 20
27.32461
 30
0.0
 11
351.67887
 21
29.69725
 31
0.0
  0
LINE
  5
75
  8
0
 10
338.18234
 20
46.07937
 30
0.0
 11
345.95082
 21
27.32461
 31
0.0
  0
LINE
  5
76
  8
0
 10
343.9104
 20
48.45201
 30
0.0
 11
338.18234
 21
46.07937
 31
0.0
  0
LINE
  5
77
  8
0
 10
351.67887
 20
29.69725
 30
0.0
 11
343.9104
 21
48.45201
 31
0.0
  0
LINE
  5
78
  8
0
 10
348.37345
 20
157.24249
 30
0.0
 11
352.75751
 21
161.62655
 31
0.0
  0
LINE
  5
79
  8
0
 10
334.01918
 20
171.59676
 30
0.0
 11
348.37345
 21
157.24249
 31
0.0
  0
LINE
  5
7A
  8
0
 10
338.40324
 20
175.98082
 30
0.0
 11
334.01918
 21
171.59676
 31
0.0
  0
LINE
  5
7B
  8
0
 10
352.75751
 20
161.62655
 30
0.0
 11
338.40324
 21
175.98082
 31
0.0
  0
LINE
  5
7C
  8
0
 10
426.1552
 20
79.46074
 30
0.0
 11
430.53926
 21
83.8448
 31
0.0
  0
LINE
  5
7D
  8
0
 10
411.80093
 20
93.81501
 30
0.0
 11
426.1552
 21
79.46074
 31
0.0
  0
LINE
  5
7E
  8
0
 10
416.18499
 20
98.19907
 30
0.0
 11
411.80093
 21
93.81501
 31
0.0
  0
LINE
  5
7F
  8
0
 10
430.53926
 20
83.8448
 30
0.0
 11
416.18499
 21
98.19907
 31
0.0
  0
LINE
  5
80
  8
0
 10
500.15
 20
258.1
 30
0.0
 11
479.85
 21
258.1
 31
0.0
  0
LINE
  5
81
  8
0
 10
479.85
 20
258.1
 30
0.0
 11
479.85
 21
251.9
 31
0.0
  0
LINE
  5
82
  8
0
 10
479.85
 20
251.9
 30
0.0
 11
500.15
 21
251.9
 31
0.0
  0
LINE
  5
83
  8
0
 10
500.15
 20
251.9
 30
0.0
 11
500.15
 21
258.1
 31
0.0
  0
LINE
  5
84
  8
0
 10
390.15
 20
258.1
 30
0.0
 11
369.85
 21
258.1
 31
0.0
  0
LINE
  5
85
  8
0
 10
369.85
 20
258.1
 30
0.0
 11
369.85
 21
251.9
 31
0.0
  0
LINE
  5
86
  8
0
 10
369.85
 20
251.9
 30
0.0
 11
390.15
 21
251.9
 31
0.0
  0
LINE
  5
87
  8
0
 10
390.15
 20
251.9
 30
0.0
 11
390.15
 21
258.1
 31
0.0
  0
LINE
  5
88
  8
0
 10
482.67539
 20
164.04918
 30
0.0
 11
463.92063
 21
171.81766
 31
0.0
  0
LINE
  5
89
  8
0
 10
463.92063
 20
171.81766
 30
0.0
 11
461.54799
 21
166.0896
 31
0.0
  0
LINE
  5
8A
  8
0
 10
461.54799
 20
166.0896
 30
0.0
 11
480.30275
 21
158.32113
 31
0.0
  0
LINE
  5
8B
  8
0
 10
480.30275
 20
158.32113
 30
0.0
 11
482.67539
 21
164.04918
 31
0.0
  0
LINE
  5
8C
  8
0
 10
381.04864
 20
206.14436
 30
0.0
 11
362.29388
 21
213.91283
 31
0.0
  0
LINE
  5
8D
  8
0
 10
362.29388
 20
213.91283
 30
0.0
 11
359.92125
 21
208.18478
 31
0.0
  0
LINE
  5
8E
  8
0
 10
359.92125
 20
208.18478
 30
0.0
 11
378.676
 21
200.41631
 31
0.0
  0
LINE
  5
8F
  8
0
 10
378.676
 20
200.41631
 30
0.0
 11
381.04864
 21
206.14436
 31
0.0
  0
LINE
  5
90
  8
0
 10
378.676
 20
309.58369
 30
0.0
 11
381.04864
 21
303.85564
 31
0.0
  0
LINE
  5
91
  8
0
 10
359.92125
 20
301.81522
 30
0.0
 11
378.676
 21
309.58369
 31
0.0
  0
LINE
  5
92
  8
0
 10
362.29388
 20
296.08717
 30
0.0
 11
359.92125
 21
301.81522
 31
0.0
  0
LINE
  5
93
  8
0
 10
381.04864
 20
303.85564
 30
0.0
 11
362.29388
 21
296.08717
 31
0.0
  0
LINE
  5
94
  8
0
 10
480.30275
 20
351.67887
 30
0.0
 11
482.67539
 21
345.95082
 31
0.0
  0
LINE
  5
95
  8
0
 10
461.54799
 20
343.9104
 30
0.0
 11
480.30275
 21
351.67887
 31
0.0
  0
LINE
  5
96
  8
0
 10
463.92063
 20
338.18234
 30
0.0
 11
461.54799
 21
343.9104
 31
0.0
  0
LINE
  5
97
  8
0
 10
482.67539
 20
345.95082
 30
0.0
 11
463.92063
 21
338.18234
 31
0.0
  0
LINE
  5
98
  8
0
 10
430.53926
 20
426.1552
 30
0.0
 11
416.18499
 21
411.80093
 31
0.0
  0
LINE
  5
99
  8
0
 10
416.18499
 20
411.80093
 30
0.0
 11
411.80093
 21
416.18499
 31
0.0
  0
LINE
  5
9A
  8
0
 10
411.80093
 20
416.18499
 30
0.0
 11
426.1552
 21
430.53926
 31
0.0
  0
LINE
  5
9B
  8
0
 10
426.1552
 20
430.53926
 30
0.0
 11
430.53926
 21
426.1552
 31
0.0
  0
LINE
  5
9C
  8
0
 10
352.75751
 20
348.37345
 30
0.0
 11
338.40324
 21
334.01918
 31
0.0
  0
LINE
  5
9D
  8
0
 10
338.40324
 20
334.01918
 30
0.0
 11
334.01918
 21
338.40324
 31
0.0
  0
LINE
  5
9E
  8
0
 10
334.01918
 20
338.40324
 30
0.0
 11
348.37345
 21
352.75751
 31
0.0
  0
LINE
  5
9F
  8
0
 10
348.37345
 20
352.75751
 30
0.0
 11
352.75751
 21
348.37345
 31
0.0
  0
LINE
  5
A0
  8
0
 10
351.67887
 20
480.30275
 30
0.0
 11
343.9104
 21
461.54799
 31
0.0
  0
LINE
  5
A1
  8
0
 10
343.9104
 20
461.54799
 30
0.0
 11
338.18234
 21
463.92063
 31
0.0
  0
LINE
  5
A2
  8
0
 10
338.18234
 20
463.92063
 30
0.0
 11
345.95082
 21
482.67539
 31
0.0
  0
LINE
  5
A3
  8
0
 10
345.95082
 20
482.67539
 30
0.0
 11
351.67887
 21
480.30275
 31
0.0
  0
LINE
  5
A4
  8
0
 10
309.58369
 20
378.676
 30
0.0
 11
301.81522
 21
359.92125
 31
0.0
  0
LINE
  5
A5
  8
0
 10
301.81522
 20
359.92125
 30
0.0
 11
296.08717
 21
362.29388
 31
0.0
  0
LINE
  5
A6
  8
0
 10
296.08717
 20
362.29388
 30
0.0
 11
303.85564
 21
381.04864
 31
0.0
  0
LINE
  5
A7
  8
0
 10
303.85564
 20
381.04864
 30
0.0
 11
309.58369
 21
378.676
 31
0.0
  0
LINE
  5
A8
  8
0
 10
251.9
 20
390.15
 30
0.0
 11
258.1
 21
390.15
 31
0.0
  0
LINE
  5
A9
  8
0
 10
251.9
 20
369.85
 30
0.0
 11
251.9
 21
390.15
 31
0.0
  0
LINE
  5
AA
  8
0
 10
258.1
 20
369.85
 30
0.0
 11
251.9
 21
369.85
 31
0.0
  0
LINE
  5
AB
  8
0
 10
258.1
 20
390.15
 30
0.0
 11
258.1
 21
369.85
 31
0.0
  0
LINE
  5
AC
  8
0
 10
251.9
 20
500.15
 30
0.0
 11
258.1
 21
500.15
 31
0.0
  0
LINE
  5
AD
  8
0
 10
251.9
 20
479.85
 30
0.0
 11
251.9
 21
500.15
 31
0.0
  0
LINE
  5
AE
  8
0
 10
258.1
 20
479.85
 30
0.0
 11
251.9
 21
479.85
 31
0.0
  0
LINE
  5
AF
  8
0
 10
258.1
 20
500.15
 30
0.0
 11
258.1
 21
479.85
 31
0.0
  0
LINE
  5
B0
  8
0
 10
206.14436
 20
381.04864
 30
0.0
 11
200.41631
 21
378.676
 31
0.0
  0
LINE
  5
B1
  8
0
 10
213.91283
 20
362.29388
 30
0.0
 11
206.14436
 21
381.04864
 31
0.0
  0
LINE
  5
B2
  8
0
 10
208.18478
 20
359.92125
 30
0.0
 11
213.91283
 21
362.29388
 31
0.0
  0
LINE
  5
B3
  8
0
 10
200.41631
 20
378.676
 30
0.0
 11
208.18478
 21
359.92125
 31
0.0
  0
LINE
  5
B4
  8
0
 10
164.04918
 20
482.67539
 30
0.0
 11
158.32113
 21
480.30275
 31
0.0
  0
LINE
  5
B5
  8
0
 10
171.81766
 20
463.92063
 30
0.0
 11
164.04918
 21
482.67539
 31
0.0
  0
LINE
  5
B6
  8
0
 10
166.0896
 20
461.54799
 30
0.0
 11
171.81766
 21
463.92063
 31
0.0
  0
LINE
  5
B7
  8
0
 10
158.32113
 20
480.30275
 30
0.0
 11
166.0896
 21
461.54799
 31
0.0
  0
LINE
  5
B8
  8
0
 10
161.62655
 20
352.75751
 30
0.0
 11
157.24249
 21
348.37345
 31
0.0
  0
LINE
  5
B9
  8
0
 10
175.98082
 20
338.40324
 30
0.0
 11
161.62655
 21
352.75751
 31
0.0
  0
LINE
  5
BA
  8
0
 10
171.59676
 20
334.01918
 30
0.0
 11
175.98082
 21
338.40324
 31
0.0
  0
LINE
  5
BB
  8
0
 10
157.24249
 20
348.37345
 30
0.0
 11
171.59676
 21
334.01918
 31
0.0
  0
LINE
  5
BC
  8
0
 10
83.8448
 20
430.53926
 30
0.0
 11
79.46074
 21
426.1552
 31
0.0
  0
LINE
  5
BD
  8
0
 10
98.19907
 20
416.18499
 30
0.0
 11
83.8448
 21
430.53926
 31
0.0
  0
LINE
  5
BE
  8
0
 10
93.81501
 20
411.80093
 30
0.0
 11
98.19907
 21
416.18499
 31
0.0
  0
LINE
  5
BF
  8
0
 10
79.46074
 20
426.1552
 30
0.0
 11
93.81501
 21
411.80093
 31
0.0
  0
LINE
  5
C0
  8
0
 10
27.32461
 20
345.95082
 30
0.0
 11
46.07937
 21
338.18234
 31
0.0
  0
LINE
  5
C1
  8
0
 10
46.07937
 20
338.18234
 30
0.0
 11
48.45201
 21
343.9104
 31
0.0
  0
LINE
  5
C2
  8
0
 10
48.45201
 20
343.9104
 30
0.0
 11
29.69725
 21
351.67887
 31
0.0
  0
LINE
  5
C3
  8
0
 10
29.69725
 20
351.67887
 30
0.0
 11
27.32461
 21
345.95082
 31
0.0
  0
LINE
  5
C4
  8
0
 10
128.95136
 20
303.85564
 30
0.0
 11
147.70612
 21
296.08717
 31
0.0
  0
LINE
  5
C5
  8
0
 10
147.70612
 20
296.08717
 30
0.0
 11
150.07875
 21
301.81522
 31
0.0
  0
LINE
  5
C6
  8
0
 10
150.07875
 20
301.81522
 30
0.0
 11
131.324
 21
309.58369
 31
0.0
  0
LINE
  5
C7
  8
0
 10
131.324
 20
309.58369
 30
0.0
 11
128.95136
 21
303.85564
 31
0.0
  0
LINE
  5
C8
  8
0
 10
131.324
 20
200.41631
 30
0.0
 11
128.95136
 21
206.14436
 31
0.0
  0
LINE
  5
C9
  8
0
 10
150.07875
 20
208.18478
 30
0.0
 11
131.324
 21
200.41631
 31
0.0
  0
LINE
  5
CA
  8
0
 10
147.70612
 20
213.91283
 30
0.0
 11
150.07875
 21
208.18478
 31
0.0
  0
LINE
  5
CB
  8
0
 10
128.95136
 20
206.14436
 30
0.0
 11
147.70612
 21
213.91283
 31
0.0
  0
LINE
  5
CC
  8
0
 10
29.69725
 20
158.32113
 30
0.0
 11
27.32461
 21
164.04918
 31
0.0
  0
LINE
  5
CD
  8
0
 10
48.45201
 20
166.0896
 30
0.0
 11
29.69725
 21
158.32113
 31
0.0
  0
LINE
  5
CE
  8
0
 10
46.07937
 20
171.81766
 30
0.0
 11
48.45201
 21
166.0896
 31
0.0
  0
LINE
  5
CF
  8
0
 10
27.32461
 20
164.04918
 30
0.0
 11
46.07937
 21
171.81766
 31
0.0
  0
LINE
  5
D0
  8
0
 10
119.85
 20
251.9
 30
0.0
 11
119.85
 21
258.1
 31
0.0
  0
LINE
  5
D1
  8
0
 10
140.15
 20
251.9
 30
0.0
 11
119.85
 21
251.9
 31
0.0
  0
LINE
  5
D2
  8
0
 10
140.15
 20
258.1
 30
0.0
 11
140.15
 21
251.9
 31
0.0
  0
LINE
  5
D3
  8
0
 10
119.85
 20
258.1
 30
0.0
 11
140.15
 21
258.1
 31
0.0
  0
LINE
  5
D4
  8
0
 10
9.85
 20
251.9
 30
0.0
 11
9.85
 21
258.1
 31
0.0
  0
LINE
  5
D5
  8
0
 10
30.15
 20
251.9
 30
0.0
 11
9.85
 21
251.9
 31
0.0
  0
LINE
  5
D6
  8
0
 10
30.15
 20
258.1
 30
0.0
 11
30.15
 21
251.9
 31
0.0
  0
LINE
  5
D7
  8
0
 10
9.85
 20
258.1
 30
0.0
 11
30.15
 21
258.1
 31
0.0
  0
LINE
  5
D8
  8
0
 10
79.46074
 20
83.8448
 30
0.0
 11
93.81501
 21
98.19907
 31
0.0
  0
LINE
  5
D9
  8
0
 10
93.81501
 20
98.19907
 30
0.0
 11
98.19907
 21
93.81501
 31
0.0
  0
LINE
  5
DA
  8
0
 10
98.19907
 20
93.81501
 30
0.0
 11
83.8448
 21
79.46074
 31
0.0
  0
LINE
  5
DB
  8
0
 10
83.8448
 20
79.46074
 30
0.0
 11
79.46074
 21
83.8448
 31
0.0
  0
LINE
  5
DC
  8
0
 10
157.24249
 20
161.62655
 30
0.0
 11
171.59676
 21
175.98082
 31
0.0
  0
LINE
  5
DD
  8
0
 10
171.59676
 20
175.98082
 30
0.0
 11
175.98082
 21
171.59676
 31
0.0
  0
LINE
  5
DE
  8
0
 10
175.98082
 20
171.59676
 30
0.0
 11
161.62655
 21
157.24249
 31
0.0
  0
LINE
  5
DF
  8
0
 10
161.62655
 20
157.24249
 30
0.0
 11
157.24249
 21
161.62655
 31
0.0
  0
LINE
  5
E0
  8
0
 10
158.32113
 20
29.69725
 30
0.0
 11
166.0896
 21
48.45201
 31
0.0
  0
LINE
  5
E1
  8
0
 10
166.0896
 20
48.45201
 30
0.0
 11
171.81766
 21
46.07937
 31
0.0
  0
LINE
  5
E2
  8
0
 10
171.81766
 20
46.07937
 30
0.0
 11
164.04918
 21
27.32461
 31
0.0
  0
LINE
  5
E3
  8
0
 10
164.04918
 20
27.32461
 30
0.0
 11
158.32113
 21
29.69725
 31
0.0
  0
LINE
  5
E4
  8
0
 10
200.41631
 20
131.324
 30
0.0
 11
208.18478
 21
150.07875
 31
0.0
  0
LINE
  5
E5
  8
0
 10
208.18478
 20
150.07875
 30
0.0
 11
213.91283
 21
147.70612
 31
0.0
  0
LINE
  5
E6
  8
0
 10
213.91283
 20
147.70612
 30
0.0
 11
206.14436
 21
128.95136
 31
0.0
  0
LINE
  5
E7
  8
0
 10
206.14436
 20
128.95136
 30
0.0
 11
200.41631
 21
131.324
 31
0.0
  0
ENDSEC
  0
EOF
