  0
SECTION
  2
HEADER
  9
$ACADVER
  1
AC1015
  9
$HANDSEED
  5
FFFF
  9
$INSUNITS
 70
1
  9
$DIMEXE
 40
0.18
  9
$TEXTSTYLE
  7
Standard
  9
$TEXTSTYLE
  7
Roman
  9
$LIMMIN
 10
0.0
 20
0.0
  0
ENDSEC
  0
SECTION
  2
TABLES
  0
TABLE
  2
VPORT
  5
8
100
AcDbSymbolTable
 70
1
  0
VPORT
  5
30
100
AcDbSymbolTableRecord
100
AcDbViewportTableRecord
  2
*Active
 70
0
 10
0.0
 20
0.0
 11
1.0
 21
1.0
 12
286.30555555555549
 22
148.5
 13
0.0
 23
0.0
 14
0.0
 24
0.0
 15
10.0
 25
10.0
 16
0.0
 26
0.0
 36
1.0
 17
0.0
 27
0.0
 37
0.0
 40
297.0
 41
1.92798353909465
 42
50.0
 43
0.0
 44
0.0
 50
0.0
 51
0.0
 71
0
 72
100
 73
1
 74
3
 75
1
 76
1
 77
0
 78
0
281
0
 65
1
110
0.0
120
0.0
130
0.0
111
1.0
121
0.0
131
0.0
112
0.0
122
1.0
132
0.0
 79
0
146
0.0
  0
ENDTAB
  0
TABLE
  2
LTYPE
  5
5
100
AcDbSymbolTable
 70
25
  0
LTYPE
  5
14
100
AcDbSymbolTableRecord
100
AcDbLinetypeTableRecord
  2
BYBLOCK
 70
0
  3

 72
65
 73
0
 40
0.0
  0
LTYPE
  5
15
100
AcDbSymbolTableRecord
100
AcDbLinetypeTableRecord
  2
BYLAYER
 70
0
  3

 72
65
 73
0
 40
0.0
  0
LTYPE
  5
16
100
AcDbSymbolTableRecord
100
AcDbLinetypeTableRecord
  2
CONTINUOUS
 70
0
  3
Solid line
 72
65
 73
0
 40
0.0
  0
LTYPE
  5
31
100
AcDbSymbolTableRecord
100
AcDbLinetypeTableRecord
  2
ACAD_ISO02W100
 70
0
  3
ISO Dashed __ __ __ __ __ __ __ __ __ __ _
 72
65
 73
2
 40
15.0
 49
12.0
 74
0
 49
-3.0
 74
0
  0
LTYPE
  5
32
100
AcDbSymbolTableRecord
100
AcDbLinetypeTableRecord
  2
ACAD_ISO03W100
 70
0
  3
ISO Dashed with Distance __    __    __    _
 72
65
 73
2
 40
30.0
 49
12.0
 74
0
 49
-18.0
 74
0
  0
LTYPE
  5
33
100
AcDbSymbolTableRecord
100
AcDbLinetypeTableRecord
  2
ACAD_ISO04W100
 70
0
  3
ISO Long Dashed Dotted ____ . ____ . __
 72
65
 73
4
 40
30.0
 49
24.0
 74
0
 49
-3.0
 74
0
 49
0.0
 74
0
 49
-3.0
 74
0
  0
LTYPE
  5
34
100
AcDbSymbolTableRecord
100
AcDbLinetypeTableRecord
  2
ACAD_ISO05W100
 70
0
  3
ISO Long Dashed Double Dotted ____ .. __
 72
65
 73
6
 40
33.0
 49
24.0
 74
0
 49
-3.0
 74
0
 49
0.0
 74
0
 49
-3.0
 74
0
 49
0.0
 74
0
 49
-3.0
 74
0
  0
LTYPE
  5
35
100
AcDbSymbolTableRecord
100
AcDbLinetypeTableRecord
  2
BORDER
 70
0
  3
Border __ __ . __ __ . __ __ . __ __ . __ __ .
 72
65
 73
6
 40
44.450000000000003
 49
12.699999999999999
 74
0
 49
-6.3499999999999996
 74
0
 49
12.699999999999999
 74
0
 49
-6.3499999999999996
 74
0
 49
0.0
 74
0
 49
-6.3499999999999996
 74
0
  0
LTYPE
  5
36
100
AcDbSymbolTableRecord
100
AcDbLinetypeTableRecord
  2
BORDER2
 70
0
  3
Border (.5x) __.__.__.__.__.__.__.__.__.__.__.
 72
65
 73
6
 40
22.225000000000001
 49
6.3499999999999996
 74
0
 49
-3.1749999999999998
 74
0
 49
6.3499999999999996
 74
0
 49
-3.1749999999999998
 74
0
 49
0.0
 74
0
 49
-3.1749999999999998
 74
0
  0
LTYPE
  5
37
100
AcDbSymbolTableRecord
100
AcDbLinetypeTableRecord
  2
BORDERX2
 70
0
  3
Border (2x) ____  ____  .  ____  ____  .  ___
 72
65
 73
6
 40
88.900000000000006
 49
25.399999999999999
 74
0
 49
-12.699999999999999
 74
0
 49
25.399999999999999
 74
0
 49
-12.699999999999999
 74
0
 49
0.0
 74
0
 49
-12.699999999999999
 74
0
  0
LTYPE
  5
38
100
AcDbSymbolTableRecord
100
AcDbLinetypeTableRecord
  2
CENTER
 70
0
  3
Center ____ _ ____ _ ____ _ ____ _ ____ _ ____
 72
65
 73
4
 40
50.799999999999997
 49
31.75
 74
0
 49
-6.3499999999999996
 74
0
 49
6.3499999999999996
 74
0
 49
-6.3499999999999996
 74
0
  0
LTYPE
  5
39
100
AcDbSymbolTableRecord
100
AcDbLinetypeTableRecord
  2
CENTER2
 70
0
  3
Center (.5x) ___ _ ___ _ ___ _ ___ _ ___ _ ___
 72
65
 73
4
 40
28.574999999999999
 49
19.050000000000001
 74
0
 49
-3.1749999999999998
 74
0
 49
3.1749999999999998
 74
0
 49
-3.1749999999999998
 74
0
  0
LTYPE
  5
3A
100
AcDbSymbolTableRecord
100
AcDbLinetypeTableRecord
  2
CENTERX2
 70
0
  3
Center (2x) ________  __  ________  __  _____
 72
65
 73
4
 40
101.59999999999999
 49
63.5
 74
0
 49
-12.699999999999999
 74
0
 49
12.699999999999999
 74
0
 49
-12.699999999999999
 74
0
  0
LTYPE
  5
3B
100
AcDbSymbolTableRecord
100
AcDbLinetypeTableRecord
  2
DASHDOT
 70
0
  3
Dash dot __ . __ . __ . __ . __ . __ . __ . __
 72
65
 73
4
 40
25.399999999999999
 49
12.699999999999999
 74
0
 49
-6.3499999999999996
 74
0
 49
0.0
 74
0
 49
-6.3499999999999996
 74
0
  0
LTYPE
  5
3C
100
AcDbSymbolTableRecord
100
AcDbLinetypeTableRecord
  2
DASHDOT2
 70
0
  3
Dash dot (.5x) _._._._._._._._._._._._._._._.
 72
65
 73
4
 40
12.699999999999999
 49
6.3499999999999996
 74
0
 49
-3.1749999999999998
 74
0
 49
0.0
 74
0
 49
-3.1749999999999998
 74
0
  0
LTYPE
  5
3D
100
AcDbSymbolTableRecord
100
AcDbLinetypeTableRecord
  2
DASHDOTX2
 70
0
  3
Dash dot (2x) ____  .  ____  .  ____  .  ___
 72
65
 73
4
 40
50.799999999999997
 49
25.399999999999999
 74
0
 49
-12.699999999999999
 74
0
 49
0.0
 74
0
 49
-12.699999999999999
 74
0
  0
LTYPE
  5
3E
100
AcDbSymbolTableRecord
100
AcDbLinetypeTableRecord
  2
DASHED
 70
0
  3
Dashed __ __ __ __ __ __ __ __ __ __ __ __ __ _
 72
65
 73
2
 40
19.050000000000001
 49
12.699999999999999
 74
0
 49
-6.3499999999999996
 74
0
  0
LTYPE
  5
3F
100
AcDbSymbolTableRecord
100
AcDbLinetypeTableRecord
  2
DASHED2
 70
0
  3
Dashed (.5x) _ _ _ _ _ _ _ _ _ _ _ _ _ _ _ _ _
 72
65
 73
2
 40
9.5250000000000004
 49
6.3499999999999996
 74
0
 49
-3.1749999999999998
 74
0
  0
LTYPE
  5
40
100
AcDbSymbolTableRecord
100
AcDbLinetypeTableRecord
  2
DASHEDX2
 70
0
  3
Dashed (2x) ____  ____  ____  ____  ____  ___
 72
65
 73
2
 40
38.100000000000001
 49
25.399999999999999
 74
0
 49
-12.699999999999999
 74
0
  0
LTYPE
  5
41
100
AcDbSymbolTableRecord
100
AcDbLinetypeTableRecord
  2
DIVIDE
 70
0
  3
Divide ____ . . ____ . . ____ . . ____ . . ____
 72
65
 73
6
 40
31.75
 49
12.699999999999999
 74
0
 49
-6.3499999999999996
 74
0
 49
0.0
 74
0
 49
-6.3499999999999996
 74
0
 49
0.0
 74
0
 49
-6.3499999999999996
 74
0
  0
LTYPE
  5
42
100
AcDbSymbolTableRecord
100
AcDbLinetypeTableRecord
  2
DIVIDE2
 70
0
  3
Divide (.5x) __..__..__..__..__..__..__..__.._
 72
65
 73
6
 40
15.875
 49
6.3499999999999996
 74
0
 49
-3.1749999999999998
 74
0
 49
0.0
 74
0
 49
-3.1749999999999998
 74
0
 49
0.0
 74
0
 49
-3.1749999999999998
 74
0
  0
LTYPE
  5
43
100
AcDbSymbolTableRecord
100
AcDbLinetypeTableRecord
  2
DIVIDEX2
 70
0
  3
Divide (2x) ________  .  .  ________  .  .  _
 72
65
 73
6
 40
63.5
 49
25.399999999999999
 74
0
 49
-12.699999999999999
 74
0
 49
0.0
 74
0
 49
-12.699999999999999
 74
0
 49
0.0
 74
0
 49
-12.699999999999999
 74
0
  0
LTYPE
  5
44
100
AcDbSymbolTableRecord
100
AcDbLinetypeTableRecord
  2
DOT
 70
0
  3
Dot . . . . . . . . . . . . . . . . . . . . . .
 72
65
 73
2
 40
6.3499999999999996
 49
0.0
 74
0
 49
-6.3499999999999996
 74
0
  0
LTYPE
  5
45
100
AcDbSymbolTableRecord
100
AcDbLinetypeTableRecord
  2
DOT2
 70
0
  3
Dot (.5x) .....................................
 72
65
 73
2
 40
3.1749999999999998
 49
0.0
 74
0
 49
-3.1749999999999998
 74
0
  0
LTYPE
  5
46
100
AcDbSymbolTableRecord
100
AcDbLinetypeTableRecord
  2
DOTX2
 70
0
  3
Dot (2x) .  .  .  .  .  .  .  .  .  .  .  .  .
 72
65
 73
2
 40
12.699999999999999
 49
0.0
 74
0
 49
-12.699999999999999
 74
0
  0
ENDTAB
  0
TABLE
  2
LAYER
  5
2
100
AcDbSymbolTable
 70
5
  0
LAYER
  5
10
100
AcDbSymbolTableRecord
100
AcDbLayerTableRecord
  2
0
 70
0
 62
250
  6
CONTINUOUS
370
100
390
F
  0
LAYER
  5
47
100
AcDbSymbolTableRecord
100
AcDbLayerTableRecord
  2
H
 70
0
 62
7
  6
CONTINUOUS
370
100
390
F
  0
LAYER
  5
48
100
AcDbSymbolTableRecord
100
AcDbLayerTableRecord
  2
P
 70
0
 62
250
  6
CONTINUOUS
370
100
390
F
  0
LAYER
  5
49
100
AcDbSymbolTableRecord
100
AcDbLayerTableRecord
  2
Text
 70
0
 62
250
  6
CONTINUOUS
370
100
390
F
  0
LAYER
  5
4A
100
AcDbSymbolTableRecord
100
AcDbLayerTableRecord
  2
Images
 70
0
 62
250
  6
CONTINUOUS
370
100
390
F
  0
ENDTAB
  0
TABLE
  2
STYLE
  5
3
100
AcDbSymbolTable
 70
1
  0
STYLE
  5
11
100
AcDbSymbolTableRecord
100
AcDbTextStyleTableRecord
  2
Standard
 70
0
 40
0.0
 41
0.75
 50
0.0
 71
0
 42
2.5
  3
txt
  4

  0
ENDTAB
  0
TABLE
  2
VIEW
  5
6
100
AcDbSymbolTable
 70
0
  0
ENDTAB
  0
TABLE
  2
UCS
  5
7
100
AcDbSymbolTable
 70
0
  0
ENDTAB
  0
TABLE
  2
APPID
  5
9
100
AcDbSymbolTable
 70
1
  0
APPID
  5
12
100
AcDbSymbolTableRecord
100
AcDbRegAppTableRecord
  2
ACAD
 70
0
  0
ENDTAB
  0
TABLE
  2
DIMSTYLE
  5
A
100
AcDbSymbolTable
 70
1
100
AcDbDimStyleTable
 71
0
  0
DIMSTYLE
105
27
100
AcDbSymbolTableRecord
100
AcDbDimStyleTableRecord
  2
Standard
 41
1.0
 42
1.0
 43
3.75
 44
1.0
 70
0
 73
0
 74
0
 77
1
 78
8
140
1.0
141
2.5
143
0.03937007874016
147
1.0
171
3
172
1
271
2
272
2
274
3
278
44
283
0
284
8
340
11
  0
ENDTAB
  0
TABLE
  2
BLOCK_RECORD
  5
1
100
AcDbSymbolTable
 70
1
  0
BLOCK_RECORD
  5
1F
100
AcDbSymbolTableRecord
100
AcDbBlockTableRecord
  2
*Model_Space
340
22
  0
BLOCK_RECORD
  5
1B
100
AcDbSymbolTableRecord
100
AcDbBlockTableRecord
  2
*Paper_Space
340
1E
  0
BLOCK_RECORD
  5
23
100
AcDbSymbolTableRecord
100
AcDbBlockTableRecord
  2
*Paper_Space0
340
26
  0
ENDTAB
  0
ENDSEC
  0
SECTION
  2
BLOCKS
  0
BLOCK
  5
20
100
AcDbEntity
  8
0
100
AcDbBlockBegin
  2
*Model_Space
 70
0
 10
0.0
 20
0.0
 30
0.0
  3
*Model_Space
  1

  0
ENDBLK
  5
21
100
AcDbEntity
  8
0
100
AcDbBlockEnd
  0
BLOCK
  5
1C
100
AcDbEntity
 67
1
  8
0
100
AcDbBlockBegin
  2
*Paper_Space
 70
0
 10
0.0
 20
0.0
 30
0.0
  3
*Paper_Space
  1

  0
ENDBLK
  5
1D
100
AcDbEntity
 67
1
  8
0
100
AcDbBlockEnd
  0
BLOCK
  5
24
100
AcDbEntity
  8
0
100
AcDbBlockBegin
  2
*Paper_Space0
 70
0
 10
0.0
 20
0.0
 30
0.0
  3
*Paper_Space0
  1

  0
ENDBLK
  5
25
100
AcDbEntity
  8
0
100
AcDbBlockEnd
  0
ENDSEC
  0
SECTION
  2
ENTITIES
  0
MTEXT
  5
4B
100
AcDbEntity
100
AcDbMText
  8
Text
 62
240
370
-1
  6
BYLAYER
 10
198.0
 20
0.0
 30
0.0
 40
1.0
 41
99.0
 71
4
 72
5
  1
Unregistered Version - http://www.aidecad.com
  7
Standard
 50
0.0
 73
2
 44
1.0
  0
LWPOLYLINE
  5
4C
  8
P
 62
0
370
-1
  6
CONTINUOUS
100
AcDbEntity
100
AcDbPolyline
 90
17
 70
0
 10
278.22222222222223
 20
395.22222222222223
 10
278.22222222222223
 20
395.77777777777777
 10
278.11111111111109
 20
396.33333333333337
 10
278.0
 20
396.88888888888891
 10
277.77777777777777
 20
397.44444444444446
 10
277.55555555555554
 20
397.88888888888891
 10
277.33333333333331
 20
398.33333333333337
 10
277.0
 20
398.77777777777777
 10
276.66666666666669
 20
399.22222222222223
 10
276.22222222222223
 20
399.55555555555554
 10
275.77777777777777
 20
399.88888888888891
 10
275.33333333333331
 20
400.11111111111109
 10
274.88888888888891
 20
400.44444444444446
 10
274.33333333333331
 20
400.55555555555554
 10
273.77777777777777
 20
400.66666666666663
 10
273.22222222222223
 20
400.77777777777777
 10
272.66666666666669
 20
400.77777777777777
  0
LWPOLYLINE
  5
4D
  8
P
 62
0
370
-1
  6
CONTINUOUS
100
AcDbEntity
100
AcDbPolyline
 90
65
 70
0
 10
78.888888888888886
 20
240.66666666666669
 10
78.888888888888886
 20
241.11111111111109
 10
78.777777777777771
 20
241.55555555555554
 10
78.666666666666671
 20
242.0
 10
78.555555555555557
 20
242.44444444444446
 10
78.333333333333329
 20
242.88888888888891
 10
78.111111111111114
 20
243.22222222222223
 10
77.888888888888886
 20
243.66666666666669
 10
77.555555555555557
 20
244.0
 10
77.222222222222229
 20
244.22222222222223
 10
76.888888888888886
 20
244.55555555555554
 10
76.444444444444443
 20
244.77777777777777
 10
76.111111111111114
 20
245.0
 10
75.666666666666671
 20
245.11111111111109
 10
75.222222222222229
 20
245.22222222222223
 10
74.777777777777771
 20
245.33333333333331
 10
74.222222222222229
 20
245.33333333333331
 10
73.777777777777771
 20
245.33333333333331
 10
73.333333333333329
 20
245.22222222222223
 10
72.888888888888886
 20
245.11111111111109
 10
72.444444444444443
 20
245.0
 10
72.0
 20
244.77777777777777
 10
71.666666666666671
 20
244.55555555555554
 10
71.333333333333329
 20
244.22222222222223
 10
71.0
 20
244.0
 10
70.666666666666671
 20
243.66666666666669
 10
70.444444444444443
 20
243.22222222222223
 10
70.222222222222229
 20
242.88888888888891
 10
70.0
 20
242.44444444444446
 10
69.777777777777771
 20
242.0
 10
69.666666666666671
 20
241.55555555555554
 10
69.666666666666671
 20
241.11111111111109
 10
69.666666666666671
 20
240.66666666666669
 10
69.666666666666671
 20
240.22222222222223
 10
69.666666666666671
 20
239.77777777777777
 10
69.777777777777771
 20
239.33333333333331
 10
70.0
 20
238.88888888888891
 10
70.222222222222229
 20
238.44444444444446
 10
70.444444444444443
 20
238.11111111111109
 10
70.666666666666671
 20
237.66666666666669
 10
71.0
 20
237.44444444444446
 10
71.333333333333329
 20
237.11111111111109
 10
71.666666666666671
 20
236.77777777777777
 10
72.0
 20
236.55555555555554
 10
72.444444444444443
 20
236.44444444444446
 10
72.888888888888886
 20
236.22222222222223
 10
73.333333333333329
 20
236.11111111111109
 10
73.777777777777771
 20
236.11111111111109
 10
74.222222222222229
 20
236.0
 10
74.777777777777771
 20
236.11111111111109
 10
75.222222222222229
 20
236.11111111111109
 10
75.666666666666671
 20
236.22222222222223
 10
76.111111111111114
 20
236.44444444444446
 10
76.444444444444443
 20
236.55555555555554
 10
76.888888888888886
 20
236.77777777777777
 10
77.222222222222229
 20
237.11111111111109
 10
77.555555555555557
 20
237.44444444444446
 10
77.888888888888886
 20
237.66666666666669
 10
78.111111111111114
 20
238.11111111111109
 10
78.333333333333329
 20
238.44444444444446
 10
78.555555555555557
 20
238.88888888888891
 10
78.666666666666671
 20
239.33333333333331
 10
78.777777777777771
 20
239.77777777777777
 10
78.888888888888886
 20
240.22222222222223
 10
78.888888888888886
 20
240.66666666666669
  0
LWPOLYLINE
  5
4E
  8
P
 62
0
370
-1
  6
CONTINUOUS
100
AcDbEntity
100
AcDbPolyline
 90
3
 70
0
 10
275.66666666666669
 20
339.66666666666663
 10
296.77777777777777
 20
347.44444444444446
 10
311.55555555555554
 20
352.77777777777777
  0
LWPOLYLINE
  5
4F
  8
P
 62
0
370
-1
  6
CONTINUOUS
100
AcDbEntity
100
AcDbPolyline
 90
2
 70
0
 10
264.77777777777777
 20
335.88888888888891
 10
260.33333333333331
 20
334.22222222222223
  0
LWPOLYLINE
  5
50
  8
P
 62
0
370
-1
  6
CONTINUOUS
100
AcDbEntity
100
AcDbPolyline
 90
4
 70
0
 10
265.11111111111109
 20
334.88888888888891
 10
269.33333333333331
 20
337.44444444444446
 10
264.44444444444446
 20
336.55555555555554
 10
265.11111111111109
 20
334.88888888888891
  0
LWPOLYLINE
  5
51
  8
P
 62
0
370
-1
  6
CONTINUOUS
100
AcDbEntity
100
AcDbPolyline
 90
4
 70
0
 10
265.11111111111109
 20
334.88888888888891
 10
269.33333333333331
 20
337.44444444444446
 10
264.44444444444446
 20
336.55555555555554
 10
265.11111111111109
 20
334.88888888888891
  0
LWPOLYLINE
  5
52
  8
P
 62
0
370
-1
  6
CONTINUOUS
100
AcDbEntity
100
AcDbPolyline
 90
4
 70
0
 10
279.88888888888891
 20
342.22222222222223
 10
275.66666666666669
 20
339.66666666666663
 10
280.44444444444446
 20
340.33333333333337
 10
279.88888888888891
 20
342.22222222222223
  0
LWPOLYLINE
  5
53
  8
P
 62
0
370
-1
  6
CONTINUOUS
100
AcDbEntity
100
AcDbPolyline
 90
4
 70
0
 10
279.88888888888891
 20
342.22222222222223
 10
275.66666666666669
 20
339.66666666666663
 10
280.44444444444446
 20
340.33333333333337
 10
279.88888888888891
 20
342.22222222222223
  0
LWPOLYLINE
  5
54
  8
P
 62
0
370
-1
  6
CONTINUOUS
100
AcDbEntity
100
AcDbPolyline
 90
2
 70
0
 10
193.11111111111111
 20
401.77777777777777
 10
193.11111111111111
 20
405.33333333333337
  0
LWPOLYLINE
  5
55
  8
P
 62
0
370
-1
  6
CONTINUOUS
100
AcDbEntity
100
AcDbPolyline
 90
2
 70
0
 10
193.11111111111111
 20
395.44444444444446
 10
193.11111111111111
 20
398.55555555555554
  0
LWPOLYLINE
  5
56
  8
P
 62
0
370
-1
  6
CONTINUOUS
100
AcDbEntity
100
AcDbPolyline
 90
2
 70
0
 10
193.11111111111111
 20
335.22222222222223
 10
193.11111111111111
 20
338.44444444444446
  0
LWPOLYLINE
  5
57
  8
P
 62
0
370
-1
  6
CONTINUOUS
100
AcDbEntity
100
AcDbPolyline
 90
2
 70
0
 10
193.11111111111111
 20
328.77777777777777
 10
193.11111111111111
 20
332.0
  0
LWPOLYLINE
  5
58
  8
P
 62
0
370
-1
  6
CONTINUOUS
100
AcDbEntity
100
AcDbPolyline
 90
2
 70
0
 10
193.11111111111111
 20
389.0
 10
193.11111111111111
 20
395.44444444444446
  0
LWPOLYLINE
  5
59
  8
P
 62
0
370
-1
  6
CONTINUOUS
100
AcDbEntity
100
AcDbPolyline
 90
2
 70
0
 10
193.11111111111111
 20
384.22222222222223
 10
193.11111111111111
 20
387.44444444444446
  0
LWPOLYLINE
  5
5A
  8
P
 62
0
370
-1
  6
CONTINUOUS
100
AcDbEntity
100
AcDbPolyline
 90
2
 70
0
 10
193.11111111111111
 20
370.11111111111109
 10
193.11111111111111
 20
382.55555555555554
  0
LWPOLYLINE
  5
5B
  8
P
 62
0
370
-1
  6
CONTINUOUS
100
AcDbEntity
100
AcDbPolyline
 90
2
 70
0
 10
193.11111111111111
 20
365.33333333333337
 10
193.11111111111111
 20
368.55555555555554
  0
LWPOLYLINE
  5
5C
  8
P
 62
0
370
-1
  6
CONTINUOUS
100
AcDbEntity
100
AcDbPolyline
 90
2
 70
0
 10
193.11111111111111
 20
351.22222222222223
 10
193.11111111111111
 20
363.66666666666663
  0
LWPOLYLINE
  5
5D
  8
P
 62
0
370
-1
  6
CONTINUOUS
100
AcDbEntity
100
AcDbPolyline
 90
2
 70
0
 10
193.11111111111111
 20
346.44444444444446
 10
193.11111111111111
 20
349.66666666666663
  0
LWPOLYLINE
  5
5E
  8
P
 62
0
370
-1
  6
CONTINUOUS
100
AcDbEntity
100
AcDbPolyline
 90
2
 70
0
 10
193.11111111111111
 20
338.44444444444446
 10
193.11111111111111
 20
344.77777777777777
  0
LWPOLYLINE
  5
5F
  8
P
 62
0
370
-1
  6
CONTINUOUS
100
AcDbEntity
100
AcDbPolyline
 90
2
 70
0
 10
280.44444444444446
 20
366.88888888888891
 10
284.33333333333331
 20
366.88888888888891
  0
LWPOLYLINE
  5
60
  8
P
 62
0
370
-1
  6
CONTINUOUS
100
AcDbEntity
100
AcDbPolyline
 90
2
 70
0
 10
272.44444444444446
 20
366.88888888888891
 10
276.66666666666669
 20
366.88888888888891
  0
LWPOLYLINE
  5
61
  8
P
 62
0
370
-1
  6
CONTINUOUS
100
AcDbEntity
100
AcDbPolyline
 90
2
 70
0
 10
111.22222222222223
 20
366.88888888888891
 10
113.77777777777777
 20
366.88888888888891
  0
LWPOLYLINE
  5
62
  8
P
 62
0
370
-1
  6
CONTINUOUS
100
AcDbEntity
100
AcDbPolyline
 90
2
 70
0
 10
105.44444444444444
 20
366.88888888888891
 10
108.33333333333333
 20
366.88888888888891
  0
LWPOLYLINE
  5
63
  8
P
 62
0
370
-1
  6
CONTINUOUS
100
AcDbEntity
100
AcDbPolyline
 90
2
 70
0
 10
266.77777777777777
 20
366.88888888888891
 10
272.44444444444446
 20
366.88888888888891
  0
LWPOLYLINE
  5
64
  8
P
 62
0
370
-1
  6
CONTINUOUS
100
AcDbEntity
100
AcDbPolyline
 90
2
 70
0
 10
262.22222222222223
 20
366.88888888888891
 10
265.11111111111109
 20
366.88888888888891
  0
LWPOLYLINE
  5
65
  8
P
 62
0
370
-1
  6
CONTINUOUS
100
AcDbEntity
100
AcDbPolyline
 90
2
 70
0
 10
249.11111111111111
 20
366.88888888888891
 10
260.66666666666669
 20
366.88888888888891
  0
LWPOLYLINE
  5
66
  8
P
 62
0
370
-1
  6
CONTINUOUS
100
AcDbEntity
100
AcDbPolyline
 90
2
 70
0
 10
244.66666666666666
 20
366.88888888888891
 10
247.55555555555554
 20
366.88888888888891
  0
LWPOLYLINE
  5
67
  8
P
 62
0
370
-1
  6
CONTINUOUS
100
AcDbEntity
100
AcDbPolyline
 90
2
 70
0
 10
231.55555555555554
 20
366.88888888888891
 10
243.11111111111111
 20
366.88888888888891
  0
LWPOLYLINE
  5
68
  8
P
 62
0
370
-1
  6
CONTINUOUS
100
AcDbEntity
100
AcDbPolyline
 90
2
 70
0
 10
227.11111111111111
 20
366.88888888888891
 10
229.88888888888889
 20
366.88888888888891
  0
LWPOLYLINE
  5
69
  8
P
 62
0
370
-1
  6
CONTINUOUS
100
AcDbEntity
100
AcDbPolyline
 90
2
 70
0
 10
213.66666666666666
 20
366.88888888888891
 10
225.44444444444446
 20
366.88888888888891
  0
LWPOLYLINE
  5
6A
  8
P
 62
0
370
-1
  6
CONTINUOUS
100
AcDbEntity
100
AcDbPolyline
 90
2
 70
0
 10
209.44444444444446
 20
366.88888888888891
 10
212.33333333333334
 20
366.88888888888891
  0
LWPOLYLINE
  5
6B
  8
P
 62
0
370
-1
  6
CONTINUOUS
100
AcDbEntity
100
AcDbPolyline
 90
2
 70
0
 10
196.0
 20
366.88888888888891
 10
207.88888888888889
 20
366.88888888888891
  0
LWPOLYLINE
  5
6C
  8
P
 62
0
370
-1
  6
CONTINUOUS
100
AcDbEntity
100
AcDbPolyline
 90
2
 70
0
 10
191.88888888888889
 20
366.88888888888891
 10
194.77777777777777
 20
366.88888888888891
  0
LWPOLYLINE
  5
6D
  8
P
 62
0
370
-1
  6
CONTINUOUS
100
AcDbEntity
100
AcDbPolyline
 90
2
 70
0
 10
178.44444444444446
 20
366.88888888888891
 10
190.22222222222223
 20
366.88888888888891
  0
LWPOLYLINE
  5
6E
  8
P
 62
0
370
-1
  6
CONTINUOUS
100
AcDbEntity
100
AcDbPolyline
 90
2
 70
0
 10
173.88888888888889
 20
366.88888888888891
 10
177.11111111111111
 20
366.88888888888891
  0
LWPOLYLINE
  5
6F
  8
P
 62
0
370
-1
  6
CONTINUOUS
100
AcDbEntity
100
AcDbPolyline
 90
2
 70
0
 10
160.77777777777777
 20
366.88888888888891
 10
172.66666666666666
 20
366.88888888888891
  0
LWPOLYLINE
  5
70
  8
P
 62
0
370
-1
  6
CONTINUOUS
100
AcDbEntity
100
AcDbPolyline
 90
2
 70
0
 10
156.33333333333334
 20
366.88888888888891
 10
159.55555555555554
 20
366.88888888888891
  0
LWPOLYLINE
  5
71
  8
P
 62
0
370
-1
  6
CONTINUOUS
100
AcDbEntity
100
AcDbPolyline
 90
2
 70
0
 10
143.22222222222223
 20
366.88888888888891
 10
155.11111111111111
 20
366.88888888888891
  0
LWPOLYLINE
  5
72
  8
P
 62
0
370
-1
  6
CONTINUOUS
100
AcDbEntity
100
AcDbPolyline
 90
2
 70
0
 10
138.77777777777777
 20
366.88888888888891
 10
141.66666666666666
 20
366.88888888888891
  0
LWPOLYLINE
  5
73
  8
P
 62
0
370
-1
  6
CONTINUOUS
100
AcDbEntity
100
AcDbPolyline
 90
2
 70
0
 10
125.66666666666667
 20
366.88888888888891
 10
137.44444444444446
 20
366.88888888888891
  0
LWPOLYLINE
  5
74
  8
P
 62
0
370
-1
  6
CONTINUOUS
100
AcDbEntity
100
AcDbPolyline
 90
2
 70
0
 10
121.11111111111111
 20
366.88888888888891
 10
124.0
 20
366.88888888888891
  0
LWPOLYLINE
  5
75
  8
P
 62
0
370
-1
  6
CONTINUOUS
100
AcDbEntity
100
AcDbPolyline
 90
2
 70
0
 10
113.77777777777777
 20
366.88888888888891
 10
119.88888888888889
 20
366.88888888888891
  0
LWPOLYLINE
  5
76
  8
P
 62
0
370
-1
  6
CONTINUOUS
100
AcDbEntity
100
AcDbPolyline
 90
2
 70
0
 10
104.77777777777777
 20
338.44444444444446
 10
94.222222222222229
 20
338.44444444444446
  0
LWPOLYLINE
  5
77
  8
P
 62
0
370
-1
  6
CONTINUOUS
100
AcDbEntity
100
AcDbPolyline
 90
2
 70
0
 10
104.77777777777777
 20
395.44444444444446
 10
94.222222222222229
 20
395.44444444444446
  0
LWPOLYLINE
  5
78
  8
P
 62
0
370
-1
  6
CONTINUOUS
100
AcDbEntity
100
AcDbPolyline
 90
2
 70
0
 10
97.111111111111114
 20
390.55555555555554
 10
97.111111111111114
 20
343.22222222222223
  0
LWPOLYLINE
  5
79
  8
P
 62
0
370
-1
  6
CONTINUOUS
100
AcDbEntity
100
AcDbPolyline
 90
4
 70
0
 10
96.222222222222229
 20
343.22222222222223
 10
97.111111111111114
 20
338.44444444444446
 10
98.111111111111114
 20
343.22222222222223
 10
96.222222222222229
 20
343.22222222222223
  0
LWPOLYLINE
  5
7A
  8
P
 62
0
370
-1
  6
CONTINUOUS
100
AcDbEntity
100
AcDbPolyline
 90
4
 70
0
 10
96.222222222222229
 20
343.22222222222223
 10
97.111111111111114
 20
338.44444444444446
 10
98.111111111111114
 20
343.22222222222223
 10
96.222222222222229
 20
343.22222222222223
  0
LWPOLYLINE
  5
7B
  8
P
 62
0
370
-1
  6
CONTINUOUS
100
AcDbEntity
100
AcDbPolyline
 90
4
 70
0
 10
98.111111111111114
 20
390.55555555555554
 10
97.111111111111114
 20
395.44444444444446
 10
96.222222222222229
 20
390.55555555555554
 10
98.111111111111114
 20
390.55555555555554
  0
LWPOLYLINE
  5
7C
  8
P
 62
0
370
-1
  6
CONTINUOUS
100
AcDbEntity
100
AcDbPolyline
 90
4
 70
0
 10
98.111111111111114
 20
390.55555555555554
 10
97.111111111111114
 20
395.44444444444446
 10
96.222222222222229
 20
390.55555555555554
 10
98.111111111111114
 20
390.55555555555554
  0
LWPOLYLINE
  5
7D
  8
P
 62
0
370
-1
  6
CONTINUOUS
100
AcDbEntity
100
AcDbPolyline
 90
2
 70
0
 10
113.77777777777777
 20
404.33333333333337
 10
113.77777777777777
 20
413.66666666666663
  0
LWPOLYLINE
  5
7E
  8
P
 62
0
370
-1
  6
CONTINUOUS
100
AcDbEntity
100
AcDbPolyline
 90
2
 70
0
 10
272.44444444444446
 20
404.33333333333337
 10
272.44444444444446
 20
413.66666666666663
  0
LWPOLYLINE
  5
7F
  8
P
 62
0
370
-1
  6
CONTINUOUS
100
AcDbEntity
100
AcDbPolyline
 90
2
 70
0
 10
118.55555555555556
 20
410.77777777777777
 10
267.66666666666669
 20
410.77777777777777
  0
LWPOLYLINE
  5
80
  8
P
 62
0
370
-1
  6
CONTINUOUS
100
AcDbEntity
100
AcDbPolyline
 90
4
 70
0
 10
267.66666666666669
 20
409.77777777777777
 10
272.44444444444446
 20
410.77777777777777
 10
267.66666666666669
 20
411.66666666666663
 10
267.66666666666669
 20
409.77777777777777
  0
LWPOLYLINE
  5
81
  8
P
 62
0
370
-1
  6
CONTINUOUS
100
AcDbEntity
100
AcDbPolyline
 90
4
 70
0
 10
267.66666666666669
 20
409.77777777777777
 10
272.44444444444446
 20
410.77777777777777
 10
267.66666666666669
 20
411.66666666666663
 10
267.66666666666669
 20
409.77777777777777
  0
LWPOLYLINE
  5
82
  8
P
 62
0
370
-1
  6
CONTINUOUS
100
AcDbEntity
100
AcDbPolyline
 90
4
 70
0
 10
118.55555555555556
 20
411.66666666666663
 10
113.77777777777777
 20
410.77777777777777
 10
118.55555555555556
 20
409.77777777777777
 10
118.55555555555556
 20
411.66666666666663
  0
LWPOLYLINE
  5
83
  8
P
 62
0
370
-1
  6
CONTINUOUS
100
AcDbEntity
100
AcDbPolyline
 90
4
 70
0
 10
118.55555555555556
 20
411.66666666666663
 10
113.77777777777777
 20
410.77777777777777
 10
118.55555555555556
 20
409.77777777777777
 10
118.55555555555556
 20
411.66666666666663
  0
LWPOLYLINE
  5
84
  8
P
 62
0
370
-1
  6
CONTINUOUS
100
AcDbEntity
100
AcDbPolyline
 90
3
 70
0
 10
272.44444444444446
 20
387.11111111111109
 10
272.44444444444446
 20
395.44444444444446
 10
272.44444444444446
 20
403.44444444444446
  0
LWPOLYLINE
  5
85
  8
P
 62
0
370
-1
  6
CONTINUOUS
100
AcDbEntity
100
AcDbPolyline
 90
3
 70
0
 10
264.44444444444446
 20
395.44444444444446
 10
272.44444444444446
 20
395.44444444444446
 10
280.77777777777777
 20
395.44444444444446
  0
LWPOLYLINE
  5
86
  8
P
 62
0
370
-1
  6
CONTINUOUS
100
AcDbEntity
100
AcDbPolyline
 90
3
 70
0
 10
272.44444444444446
 20
330.44444444444446
 10
272.44444444444446
 20
338.44444444444446
 10
272.44444444444446
 20
346.77777777777777
  0
LWPOLYLINE
  5
87
  8
P
 62
0
370
-1
  6
CONTINUOUS
100
AcDbEntity
100
AcDbPolyline
 90
3
 70
0
 10
264.44444444444446
 20
338.44444444444446
 10
272.44444444444446
 20
338.44444444444446
 10
280.77777777777777
 20
338.44444444444446
  0
LWPOLYLINE
  5
88
  8
P
 62
0
370
-1
  6
CONTINUOUS
100
AcDbEntity
100
AcDbPolyline
 90
3
 70
0
 10
113.77777777777777
 20
330.44444444444446
 10
113.77777777777777
 20
338.44444444444446
 10
113.77777777777777
 20
346.77777777777777
  0
LWPOLYLINE
  5
89
  8
P
 62
0
370
-1
  6
CONTINUOUS
100
AcDbEntity
100
AcDbPolyline
 90
3
 70
0
 10
105.77777777777777
 20
338.44444444444446
 10
113.77777777777777
 20
338.44444444444446
 10
122.11111111111111
 20
338.44444444444446
  0
LWPOLYLINE
  5
8A
  8
P
 62
0
370
-1
  6
CONTINUOUS
100
AcDbEntity
100
AcDbPolyline
 90
3
 70
0
 10
113.77777777777777
 20
387.11111111111109
 10
113.77777777777777
 20
395.44444444444446
 10
113.77777777777777
 20
403.44444444444446
  0
LWPOLYLINE
  5
8B
  8
P
 62
0
370
-1
  6
CONTINUOUS
100
AcDbEntity
100
AcDbPolyline
 90
3
 70
0
 10
105.77777777777777
 20
395.44444444444446
 10
113.77777777777777
 20
395.44444444444446
 10
122.11111111111111
 20
395.44444444444446
  0
LWPOLYLINE
  5
8C
  8
P
 62
0
370
-1
  6
CONTINUOUS
100
AcDbEntity
100
AcDbPolyline
 90
3
 70
0
 10
106.44444444444444
 20
402.77777777777777
 10
97.111111111111114
 20
412.0
 10
92.333333333333329
 20
416.55555555555554
  0
LWPOLYLINE
  5
8D
  8
P
 62
0
370
-1
  6
CONTINUOUS
100
AcDbEntity
100
AcDbPolyline
 90
4
 70
0
 10
105.77777777777777
 20
401.77777777777777
 10
109.88888888888889
 20
399.22222222222223
 10
107.11111111111111
 20
403.44444444444446
 10
105.77777777777777
 20
401.77777777777777
  0
LWPOLYLINE
  5
8E
  8
P
 62
0
370
-1
  6
CONTINUOUS
100
AcDbEntity
100
AcDbPolyline
 90
4
 70
0
 10
105.77777777777777
 20
401.77777777777777
 10
109.88888888888889
 20
399.22222222222223
 10
107.11111111111111
 20
403.44444444444446
 10
105.77777777777777
 20
401.77777777777777
  0
LWPOLYLINE
  5
8F
  8
P
 62
0
370
-1
  6
CONTINUOUS
100
AcDbEntity
100
AcDbPolyline
 90
2
 70
0
 10
106.44444444444444
 20
402.77777777777777
 10
106.44444444444444
 20
402.66666666666663
  0
LWPOLYLINE
  5
90
  8
P
 62
0
370
-1
  6
CONTINUOUS
100
AcDbEntity
100
AcDbPolyline
 90
2
 70
0
 10
108.0
 20
416.77777777777777
 10
108.0
 20
426.44444444444446
  0
LWPOLYLINE
  5
91
  8
P
 62
0
370
-1
  6
CONTINUOUS
100
AcDbEntity
100
AcDbPolyline
 90
2
 70
0
 10
108.0
 20
403.66666666666663
 10
108.0
 20
414.0
  0
LWPOLYLINE
  5
92
  8
P
 62
0
370
-1
  6
CONTINUOUS
100
AcDbEntity
100
AcDbPolyline
 90
2
 70
0
 10
108.0
 20
396.0
 10
108.0
 20
398.22222222222223
  0
LWPOLYLINE
  5
93
  8
P
 62
0
370
-1
  6
CONTINUOUS
100
AcDbEntity
100
AcDbPolyline
 90
2
 70
0
 10
278.22222222222223
 20
396.0
 10
278.22222222222223
 20
426.44444444444446
  0
LWPOLYLINE
  5
94
  8
P
 62
0
370
-1
  6
CONTINUOUS
100
AcDbEntity
100
AcDbPolyline
 90
2
 70
0
 10
112.77777777777777
 20
423.55555555555554
 10
273.44444444444446
 20
423.55555555555554
  0
LWPOLYLINE
  5
95
  8
P
 62
0
370
-1
  6
CONTINUOUS
100
AcDbEntity
100
AcDbPolyline
 90
4
 70
0
 10
273.44444444444446
 20
422.55555555555554
 10
278.22222222222223
 20
423.55555555555554
 10
273.44444444444446
 20
424.55555555555554
 10
273.44444444444446
 20
422.55555555555554
  0
LWPOLYLINE
  5
96
  8
P
 62
0
370
-1
  6
CONTINUOUS
100
AcDbEntity
100
AcDbPolyline
 90
4
 70
0
 10
273.44444444444446
 20
422.55555555555554
 10
278.22222222222223
 20
423.55555555555554
 10
273.44444444444446
 20
424.55555555555554
 10
273.44444444444446
 20
422.55555555555554
  0
LWPOLYLINE
  5
97
  8
P
 62
0
370
-1
  6
CONTINUOUS
100
AcDbEntity
100
AcDbPolyline
 90
4
 70
0
 10
112.77777777777777
 20
424.55555555555554
 10
108.0
 20
423.55555555555554
 10
112.77777777777777
 20
422.55555555555554
 10
112.77777777777777
 20
424.55555555555554
  0
LWPOLYLINE
  5
98
  8
P
 62
0
370
-1
  6
CONTINUOUS
100
AcDbEntity
100
AcDbPolyline
 90
4
 70
0
 10
112.77777777777777
 20
424.55555555555554
 10
108.0
 20
423.55555555555554
 10
112.77777777777777
 20
422.55555555555554
 10
112.77777777777777
 20
424.55555555555554
  0
LWPOLYLINE
  5
99
  8
P
 62
0
370
-1
  6
CONTINUOUS
100
AcDbEntity
100
AcDbPolyline
 90
2
 70
0
 10
105.44444444444444
 20
400.77777777777777
 10
82.777777777777771
 20
400.77777777777777
  0
LWPOLYLINE
  5
9A
  8
P
 62
0
370
-1
  6
CONTINUOUS
100
AcDbEntity
100
AcDbPolyline
 90
2
 70
0
 10
112.77777777777777
 20
400.77777777777777
 10
110.88888888888889
 20
400.77777777777777
  0
LWPOLYLINE
  5
9B
  8
P
 62
0
370
-1
  6
CONTINUOUS
100
AcDbEntity
100
AcDbPolyline
 90
2
 70
0
 10
112.77777777777777
 20
333.0
 10
82.777777777777771
 20
333.0
  0
LWPOLYLINE
  5
9C
  8
P
 62
0
370
-1
  6
CONTINUOUS
100
AcDbEntity
100
AcDbPolyline
 90
2
 70
0
 10
85.666666666666671
 20
337.44444444444446
 10
85.666666666666671
 20
396.0
  0
LWPOLYLINE
  5
9D
  8
P
 62
0
370
-1
  6
CONTINUOUS
100
AcDbEntity
100
AcDbPolyline
 90
4
 70
0
 10
86.555555555555557
 20
396.0
 10
85.666666666666671
 20
400.77777777777777
 10
84.666666666666671
 20
396.0
 10
86.555555555555557
 20
396.0
  0
LWPOLYLINE
  5
9E
  8
P
 62
0
370
-1
  6
CONTINUOUS
100
AcDbEntity
100
AcDbPolyline
 90
4
 70
0
 10
86.555555555555557
 20
396.0
 10
85.666666666666671
 20
400.77777777777777
 10
84.666666666666671
 20
396.0
 10
86.555555555555557
 20
396.0
  0
LWPOLYLINE
  5
9F
  8
P
 62
0
370
-1
  6
CONTINUOUS
100
AcDbEntity
100
AcDbPolyline
 90
4
 70
0
 10
84.666666666666671
 20
337.44444444444446
 10
85.666666666666671
 20
333.0
 10
86.555555555555557
 20
337.44444444444446
 10
84.666666666666671
 20
337.44444444444446
  0
LWPOLYLINE
  5
A0
  8
P
 62
0
370
-1
  6
CONTINUOUS
100
AcDbEntity
100
AcDbPolyline
 90
4
 70
0
 10
84.666666666666671
 20
337.44444444444446
 10
85.666666666666671
 20
333.0
 10
86.555555555555557
 20
337.44444444444446
 10
84.666666666666671
 20
337.44444444444446
  0
LWPOLYLINE
  5
A1
  8
P
 62
0
370
-1
  6
CONTINUOUS
100
AcDbEntity
100
AcDbPolyline
 90
2
 70
0
 10
277.33333333333331
 20
229.0
 10
81.111111111111114
 20
229.0
  0
LWPOLYLINE
  5
A2
  8
P
 62
0
370
-1
  6
CONTINUOUS
100
AcDbEntity
100
AcDbPolyline
 90
2
 70
0
 10
277.33333333333331
 20
227.44444444444446
 10
81.111111111111114
 20
227.44444444444446
  0
LWPOLYLINE
  5
A3
  8
P
 62
0
370
-1
  6
CONTINUOUS
100
AcDbEntity
100
AcDbPolyline
 90
2
 70
0
 10
82.777777777777771
 20
227.44444444444446
 10
82.777777777777771
 20
229.0
  0
LWPOLYLINE
  5
A4
  8
P
 62
0
370
-1
  6
CONTINUOUS
100
AcDbEntity
100
AcDbPolyline
 90
2
 70
0
 10
82.777777777777771
 20
233.77777777777777
 10
82.777777777777771
 20
238.55555555555554
  0
LWPOLYLINE
  5
A5
  8
P
 62
0
370
-1
  6
CONTINUOUS
100
AcDbEntity
100
AcDbPolyline
 90
2
 70
0
 10
82.777777777777771
 20
222.88888888888891
 10
82.777777777777771
 20
218.11111111111109
  0
LWPOLYLINE
  5
A6
  8
P
 62
0
370
-1
  6
CONTINUOUS
100
AcDbEntity
100
AcDbPolyline
 90
4
 70
0
 10
81.777777777777771
 20
233.77777777777777
 10
82.777777777777771
 20
229.0
 10
83.666666666666671
 20
233.77777777777777
 10
81.777777777777771
 20
233.77777777777777
  0
LWPOLYLINE
  5
A7
  8
P
 62
0
370
-1
  6
CONTINUOUS
100
AcDbEntity
100
AcDbPolyline
 90
4
 70
0
 10
81.777777777777771
 20
233.77777777777777
 10
82.777777777777771
 20
229.0
 10
83.666666666666671
 20
233.77777777777777
 10
81.777777777777771
 20
233.77777777777777
  0
LWPOLYLINE
  5
A8
  8
P
 62
0
370
-1
  6
CONTINUOUS
100
AcDbEntity
100
AcDbPolyline
 90
4
 70
0
 10
83.666666666666671
 20
222.88888888888891
 10
82.777777777777771
 20
227.44444444444446
 10
81.777777777777771
 20
222.88888888888891
 10
83.666666666666671
 20
222.88888888888891
  0
LWPOLYLINE
  5
A9
  8
P
 62
0
370
-1
  6
CONTINUOUS
100
AcDbEntity
100
AcDbPolyline
 90
4
 70
0
 10
83.666666666666671
 20
222.88888888888891
 10
82.777777777777771
 20
227.44444444444446
 10
81.777777777777771
 20
222.88888888888891
 10
83.666666666666671
 20
222.88888888888891
  0
LWPOLYLINE
  5
AA
  8
P
 62
0
370
-1
  6
CONTINUOUS
100
AcDbEntity
100
AcDbPolyline
 90
2
 70
0
 10
110.55555555555556
 20
228.0
 10
110.55555555555556
 20
227.44444444444446
  0
LWPOLYLINE
  5
AB
  8
P
 62
0
370
-1
  6
CONTINUOUS
100
AcDbEntity
100
AcDbPolyline
 90
2
 70
0
 10
110.55555555555556
 20
229.0
 10
110.55555555555556
 20
228.33333333333331
  0
LWPOLYLINE
  5
AC
  8
P
 62
0
370
-1
  6
CONTINUOUS
100
AcDbEntity
100
AcDbPolyline
 90
2
 70
0
 10
117.33333333333333
 20
228.0
 10
117.33333333333333
 20
227.44444444444446
  0
LWPOLYLINE
  5
AD
  8
P
 62
0
370
-1
  6
CONTINUOUS
100
AcDbEntity
100
AcDbPolyline
 90
2
 70
0
 10
117.33333333333333
 20
229.0
 10
117.33333333333333
 20
228.33333333333331
  0
LWPOLYLINE
  5
AE
  8
P
 62
0
370
-1
  6
CONTINUOUS
100
AcDbEntity
100
AcDbPolyline
 90
2
 70
0
 10
269.33333333333331
 20
228.0
 10
269.33333333333331
 20
227.44444444444446
  0
LWPOLYLINE
  5
AF
  8
P
 62
0
370
-1
  6
CONTINUOUS
100
AcDbEntity
100
AcDbPolyline
 90
2
 70
0
 10
269.33333333333331
 20
229.0
 10
269.33333333333331
 20
228.33333333333331
  0
LWPOLYLINE
  5
B0
  8
P
 62
0
370
-1
  6
CONTINUOUS
100
AcDbEntity
100
AcDbPolyline
 90
2
 70
0
 10
276.0
 20
228.0
 10
276.0
 20
227.44444444444446
  0
LWPOLYLINE
  5
B1
  8
P
 62
0
370
-1
  6
CONTINUOUS
100
AcDbEntity
100
AcDbPolyline
 90
2
 70
0
 10
276.0
 20
229.0
 10
276.0
 20
228.33333333333331
  0
LWPOLYLINE
  5
B2
  8
P
 62
0
370
-1
  6
CONTINUOUS
100
AcDbEntity
100
AcDbPolyline
 90
2
 70
0
 10
272.44444444444446
 20
229.0
 10
113.77777777777777
 20
229.0
  0
LWPOLYLINE
  5
B3
  8
P
 62
0
370
-1
  6
CONTINUOUS
100
AcDbEntity
100
AcDbPolyline
 90
2
 70
0
 10
113.77777777777777
 20
227.44444444444446
 10
272.44444444444446
 20
227.44444444444446
  0
LWPOLYLINE
  5
B4
  8
P
 62
0
370
-1
  6
CONTINUOUS
100
AcDbEntity
100
AcDbPolyline
 90
3
 70
0
 10
113.77777777777777
 20
229.0
 10
108.0
 20
229.0
 10
108.0
 20
227.44444444444446
  0
LWPOLYLINE
  5
B5
  8
P
 62
0
370
-1
  6
CONTINUOUS
100
AcDbEntity
100
AcDbPolyline
 90
2
 70
0
 10
108.0
 20
227.44444444444446
 10
113.77777777777777
 20
227.44444444444446
  0
LWPOLYLINE
  5
B6
  8
P
 62
0
370
-1
  6
CONTINUOUS
100
AcDbEntity
100
AcDbPolyline
 90
4
 70
0
 10
272.44444444444446
 20
227.44444444444446
 10
278.22222222222223
 20
227.44444444444446
 10
278.22222222222223
 20
229.0
 10
272.44444444444446
 20
229.0
  0
LWPOLYLINE
  5
B7
  8
P
 62
0
370
-1
  6
CONTINUOUS
100
AcDbEntity
100
AcDbPolyline
 90
2
 70
0
 10
278.22222222222223
 20
395.44444444444446
 10
278.22222222222223
 20
341.33333333333337
  0
LWPOLYLINE
  5
B8
  8
P
 62
0
370
-1
  6
CONTINUOUS
100
AcDbEntity
100
AcDbPolyline
 90
2
 70
0
 10
278.22222222222223
 20
340.0
 10
278.22222222222223
 20
338.44444444444446
  0
LWPOLYLINE
  5
B9
  8
P
 62
0
370
-1
  6
CONTINUOUS
100
AcDbEntity
100
AcDbPolyline
 90
2
 70
0
 10
272.44444444444446
 20
333.0
 10
113.77777777777777
 20
333.0
  0
LWPOLYLINE
  5
BA
  8
P
 62
0
370
-1
  6
CONTINUOUS
100
AcDbEntity
100
AcDbPolyline
 90
2
 70
0
 10
108.0
 20
338.44444444444446
 10
108.0
 20
395.44444444444446
  0
LWPOLYLINE
  5
BB
  8
P
 62
0
370
-1
  6
CONTINUOUS
100
AcDbEntity
100
AcDbPolyline
 90
2
 70
0
 10
113.77777777777777
 20
400.77777777777777
 10
272.44444444444446
 20
400.77777777777777
  0
LWPOLYLINE
  5
BC
  8
P
 62
0
370
-1
  6
CONTINUOUS
100
AcDbEntity
100
AcDbPolyline
 90
57
 70
0
 10
110.55555555555556
 20
338.55555555555554
 10
110.55555555555556
 20
338.22222222222223
 10
110.66666666666667
 20
337.88888888888891
 10
110.77777777777777
 20
337.55555555555554
 10
110.88888888888889
 20
337.33333333333337
 10
111.0
 20
337.0
 10
111.11111111111111
 20
336.66666666666663
 10
111.55555555555556
 20
336.22222222222223
 10
112.11111111111111
 20
335.77777777777777
 10
112.33333333333333
 20
335.66666666666663
 10
112.66666666666667
 20
335.44444444444446
 10
112.88888888888889
 20
335.33333333333337
 10
113.22222222222223
 20
335.33333333333337
 10
113.55555555555556
 20
335.22222222222223
 10
113.88888888888889
 20
335.22222222222223
 10
114.33333333333333
 20
335.22222222222223
 10
114.66666666666667
 20
335.33333333333337
 10
114.88888888888889
 20
335.33333333333337
 10
115.22222222222223
 20
335.44444444444446
 10
115.55555555555556
 20
335.66666666666663
 10
115.77777777777777
 20
335.77777777777777
 10
116.33333333333333
 20
336.22222222222223
 10
116.77777777777777
 20
336.66666666666663
 10
116.88888888888889
 20
337.0
 10
117.0
 20
337.33333333333337
 10
117.11111111111111
 20
337.55555555555554
 10
117.22222222222223
 20
337.88888888888891
 10
117.33333333333333
 20
338.22222222222223
 10
117.33333333333333
 20
338.55555555555554
 10
117.33333333333333
 20
338.88888888888891
 10
117.22222222222223
 20
339.22222222222223
 10
117.11111111111111
 20
339.55555555555554
 10
117.0
 20
339.88888888888891
 10
116.88888888888889
 20
340.22222222222223
 10
116.77777777777777
 20
340.44444444444446
 10
116.33333333333333
 20
341.0
 10
115.77777777777777
 20
341.33333333333337
 10
115.55555555555556
 20
341.55555555555554
 10
115.22222222222223
 20
341.66666666666663
 10
114.88888888888889
 20
341.77777777777777
 10
114.66666666666667
 20
341.88888888888891
 10
114.33333333333333
 20
341.88888888888891
 10
113.88888888888889
 20
342.0
 10
113.55555555555556
 20
341.88888888888891
 10
113.22222222222223
 20
341.88888888888891
 10
112.88888888888889
 20
341.77777777777777
 10
112.66666666666667
 20
341.66666666666663
 10
112.33333333333333
 20
341.55555555555554
 10
112.11111111111111
 20
341.33333333333337
 10
111.55555555555556
 20
341.0
 10
111.11111111111111
 20
340.44444444444446
 10
111.0
 20
340.22222222222223
 10
110.88888888888889
 20
339.88888888888891
 10
110.77777777777777
 20
339.55555555555554
 10
110.66666666666667
 20
339.22222222222223
 10
110.55555555555556
 20
338.88888888888891
 10
110.55555555555556
 20
338.55555555555554
  0
LWPOLYLINE
  5
BD
  8
P
 62
0
370
-1
  6
CONTINUOUS
100
AcDbEntity
100
AcDbPolyline
 90
57
 70
0
 10
110.55555555555556
 20
395.22222222222223
 10
110.55555555555556
 20
394.88888888888891
 10
110.66666666666667
 20
394.55555555555554
 10
110.77777777777777
 20
394.22222222222223
 10
110.88888888888889
 20
393.88888888888891
 10
111.0
 20
393.66666666666663
 10
111.11111111111111
 20
393.33333333333337
 10
111.55555555555556
 20
392.88888888888891
 10
112.11111111111111
 20
392.44444444444446
 10
112.33333333333333
 20
392.33333333333337
 10
112.66666666666667
 20
392.11111111111109
 10
112.88888888888889
 20
392.0
 10
113.22222222222223
 20
391.88888888888891
 10
113.55555555555556
 20
391.88888888888891
 10
113.88888888888889
 20
391.88888888888891
 10
114.33333333333333
 20
391.88888888888891
 10
114.66666666666667
 20
391.88888888888891
 10
114.88888888888889
 20
392.0
 10
115.22222222222223
 20
392.11111111111109
 10
115.55555555555556
 20
392.33333333333337
 10
115.77777777777777
 20
392.44444444444446
 10
116.33333333333333
 20
392.88888888888891
 10
116.77777777777777
 20
393.33333333333337
 10
116.88888888888889
 20
393.66666666666663
 10
117.0
 20
393.88888888888891
 10
117.11111111111111
 20
394.22222222222223
 10
117.22222222222223
 20
394.55555555555554
 10
117.33333333333333
 20
394.88888888888891
 10
117.33333333333333
 20
395.22222222222223
 10
117.33333333333333
 20
395.55555555555554
 10
117.22222222222223
 20
395.88888888888891
 10
117.11111111111111
 20
396.22222222222223
 10
117.0
 20
396.55555555555554
 10
116.88888888888889
 20
396.88888888888891
 10
116.77777777777777
 20
397.11111111111109
 10
116.33333333333333
 20
397.55555555555554
 10
115.77777777777777
 20
398.0
 10
115.55555555555556
 20
398.22222222222223
 10
115.22222222222223
 20
398.33333333333337
 10
114.88888888888889
 20
398.44444444444446
 10
114.66666666666667
 20
398.55555555555554
 10
114.33333333333333
 20
398.55555555555554
 10
113.88888888888889
 20
398.55555555555554
 10
113.55555555555556
 20
398.55555555555554
 10
113.22222222222223
 20
398.55555555555554
 10
112.88888888888889
 20
398.44444444444446
 10
112.66666666666667
 20
398.33333333333337
 10
112.33333333333333
 20
398.22222222222223
 10
112.11111111111111
 20
398.0
 10
111.55555555555556
 20
397.55555555555554
 10
111.11111111111111
 20
397.11111111111109
 10
111.0
 20
396.88888888888891
 10
110.88888888888889
 20
396.55555555555554
 10
110.77777777777777
 20
396.22222222222223
 10
110.66666666666667
 20
395.88888888888891
 10
110.55555555555556
 20
395.55555555555554
 10
110.55555555555556
 20
395.22222222222223
  0
LWPOLYLINE
  5
BE
  8
P
 62
0
370
-1
  6
CONTINUOUS
100
AcDbEntity
100
AcDbPolyline
 90
57
 70
0
 10
269.33333333333331
 20
395.22222222222223
 10
269.33333333333331
 20
394.88888888888891
 10
269.33333333333331
 20
394.55555555555554
 10
269.44444444444446
 20
394.22222222222223
 10
269.55555555555554
 20
393.88888888888891
 10
269.66666666666669
 20
393.66666666666663
 10
269.88888888888891
 20
393.33333333333337
 10
270.33333333333331
 20
392.88888888888891
 10
270.77777777777777
 20
392.44444444444446
 10
271.11111111111109
 20
392.33333333333337
 10
271.33333333333331
 20
392.11111111111109
 10
271.66666666666669
 20
392.0
 10
272.0
 20
391.88888888888891
 10
272.33333333333331
 20
391.88888888888891
 10
272.66666666666669
 20
391.88888888888891
 10
273.0
 20
391.88888888888891
 10
273.33333333333331
 20
391.88888888888891
 10
273.66666666666669
 20
392.0
 10
274.0
 20
392.11111111111109
 10
274.22222222222223
 20
392.33333333333337
 10
274.55555555555554
 20
392.44444444444446
 10
275.0
 20
392.88888888888891
 10
275.44444444444446
 20
393.33333333333337
 10
275.66666666666669
 20
393.66666666666663
 10
275.77777777777777
 20
393.88888888888891
 10
275.88888888888891
 20
394.22222222222223
 10
276.0
 20
394.55555555555554
 10
276.0
 20
394.88888888888891
 10
276.0
 20
395.22222222222223
 10
276.0
 20
395.55555555555554
 10
276.0
 20
395.88888888888891
 10
275.88888888888891
 20
396.22222222222223
 10
275.77777777777777
 20
396.55555555555554
 10
275.66666666666669
 20
396.88888888888891
 10
275.44444444444446
 20
397.11111111111109
 10
275.0
 20
397.55555555555554
 10
274.55555555555554
 20
398.0
 10
274.22222222222223
 20
398.22222222222223
 10
274.0
 20
398.33333333333337
 10
273.66666666666669
 20
398.44444444444446
 10
273.33333333333331
 20
398.55555555555554
 10
273.0
 20
398.55555555555554
 10
272.66666666666669
 20
398.55555555555554
 10
272.33333333333331
 20
398.55555555555554
 10
272.0
 20
398.55555555555554
 10
271.66666666666669
 20
398.44444444444446
 10
271.33333333333331
 20
398.33333333333337
 10
271.11111111111109
 20
398.22222222222223
 10
270.77777777777777
 20
398.0
 10
270.33333333333331
 20
397.55555555555554
 10
269.88888888888891
 20
397.11111111111109
 10
269.66666666666669
 20
396.88888888888891
 10
269.55555555555554
 20
396.55555555555554
 10
269.44444444444446
 20
396.22222222222223
 10
269.33333333333331
 20
395.88888888888891
 10
269.33333333333331
 20
395.55555555555554
 10
269.33333333333331
 20
395.22222222222223
  0
LWPOLYLINE
  5
BF
  8
P
 62
0
370
-1
  6
CONTINUOUS
100
AcDbEntity
100
AcDbPolyline
 90
31
 70
0
 10
269.33333333333331
 20
338.55555555555554
 10
269.33333333333331
 20
338.22222222222223
 10
269.33333333333331
 20
337.88888888888891
 10
269.44444444444446
 20
337.55555555555554
 10
269.55555555555554
 20
337.33333333333337
 10
269.66666666666669
 20
337.0
 10
269.88888888888891
 20
336.66666666666663
 10
270.33333333333331
 20
336.22222222222223
 10
270.77777777777777
 20
335.77777777777777
 10
271.11111111111109
 20
335.66666666666663
 10
271.33333333333331
 20
335.44444444444446
 10
271.66666666666669
 20
335.33333333333337
 10
272.0
 20
335.33333333333337
 10
272.33333333333331
 20
335.22222222222223
 10
272.66666666666669
 20
335.22222222222223
 10
273.0
 20
335.22222222222223
 10
273.33333333333331
 20
335.33333333333337
 10
273.66666666666669
 20
335.33333333333337
 10
274.0
 20
335.44444444444446
 10
274.22222222222223
 20
335.66666666666663
 10
274.55555555555554
 20
335.77777777777777
 10
275.0
 20
336.22222222222223
 10
275.44444444444446
 20
336.66666666666663
 10
275.66666666666669
 20
337.0
 10
275.77777777777777
 20
337.33333333333337
 10
275.88888888888891
 20
337.55555555555554
 10
276.0
 20
337.88888888888891
 10
276.0
 20
338.22222222222223
 10
276.0
 20
338.55555555555554
 10
276.0
 20
339.22222222222223
 10
275.77777777777777
 20
339.77777777777777
  0
LWPOLYLINE
  5
C0
  8
P
 62
0
370
-1
  6
CONTINUOUS
100
AcDbEntity
100
AcDbPolyline
 90
23
 70
0
 10
275.77777777777777
 20
339.77777777777777
 10
275.55555555555554
 20
340.22222222222223
 10
275.33333333333331
 20
340.66666666666663
 10
275.0
 20
341.0
 10
274.55555555555554
 20
341.33333333333337
 10
274.11111111111109
 20
341.55555555555554
 10
273.66666666666669
 20
341.77777777777777
 10
273.22222222222223
 20
341.88888888888891
 10
272.66666666666669
 20
342.0
 10
272.33333333333331
 20
341.88888888888891
 10
272.0
 20
341.88888888888891
 10
271.66666666666669
 20
341.77777777777777
 10
271.33333333333331
 20
341.66666666666663
 10
271.11111111111109
 20
341.55555555555554
 10
270.77777777777777
 20
341.33333333333337
 10
270.33333333333331
 20
341.0
 10
269.88888888888891
 20
340.44444444444446
 10
269.66666666666669
 20
340.22222222222223
 10
269.55555555555554
 20
339.88888888888891
 10
269.44444444444446
 20
339.55555555555554
 10
269.33333333333331
 20
339.22222222222223
 10
269.33333333333331
 20
338.88888888888891
 10
269.33333333333331
 20
338.55555555555554
  0
LWPOLYLINE
  5
C1
  8
P
 62
0
370
-1
  6
CONTINUOUS
100
AcDbEntity
100
AcDbPolyline
 90
17
 70
0
 10
272.66666666666669
 20
333.0
 10
273.22222222222223
 20
333.0
 10
273.77777777777777
 20
333.11111111111109
 10
274.33333333333331
 20
333.22222222222223
 10
274.88888888888891
 20
333.44444444444446
 10
275.33333333333331
 20
333.66666666666663
 10
275.77777777777777
 20
334.0
 10
276.22222222222223
 20
334.22222222222223
 10
276.66666666666669
 20
334.66666666666663
 10
277.0
 20
335.0
 10
277.33333333333331
 20
335.44444444444446
 10
277.55555555555554
 20
335.88888888888891
 10
277.77777777777777
 20
336.44444444444446
 10
278.0
 20
336.88888888888891
 10
278.11111111111109
 20
337.44444444444446
 10
278.22222222222223
 20
338.0
 10
278.22222222222223
 20
338.55555555555554
  0
LWPOLYLINE
  5
C2
  8
P
 62
0
370
-1
  6
CONTINUOUS
100
AcDbEntity
100
AcDbPolyline
 90
17
 70
0
 10
108.33333333333333
 20
338.55555555555554
 10
108.33333333333333
 20
338.0
 10
108.44444444444444
 20
337.44444444444446
 10
108.55555555555556
 20
336.88888888888891
 10
108.77777777777777
 20
336.44444444444446
 10
109.0
 20
335.88888888888891
 10
109.33333333333333
 20
335.44444444444446
 10
109.66666666666667
 20
335.0
 10
110.0
 20
334.66666666666663
 10
110.33333333333333
 20
334.22222222222223
 10
110.77777777777777
 20
334.0
 10
111.22222222222223
 20
333.66666666666663
 10
111.77777777777777
 20
333.44444444444446
 10
112.22222222222223
 20
333.22222222222223
 10
112.77777777777777
 20
333.11111111111109
 10
113.33333333333333
 20
333.0
 10
113.88888888888889
 20
333.0
  0
LWPOLYLINE
  5
C3
  8
P
 62
0
370
-1
  6
CONTINUOUS
100
AcDbEntity
100
AcDbPolyline
 90
17
 70
0
 10
113.88888888888889
 20
400.77777777777777
 10
113.33333333333333
 20
400.77777777777777
 10
112.77777777777777
 20
400.66666666666663
 10
112.22222222222223
 20
400.55555555555554
 10
111.77777777777777
 20
400.44444444444446
 10
111.22222222222223
 20
400.11111111111109
 10
110.77777777777777
 20
399.88888888888891
 10
110.33333333333333
 20
399.55555555555554
 10
110.0
 20
399.22222222222223
 10
109.66666666666667
 20
398.77777777777777
 10
109.33333333333333
 20
398.33333333333337
 10
109.0
 20
397.88888888888891
 10
108.77777777777777
 20
397.44444444444446
 10
108.55555555555556
 20
396.88888888888891
 10
108.44444444444444
 20
396.33333333333337
 10
108.33333333333333
 20
395.77777777777777
 10
108.33333333333333
 20
395.22222222222223
  0
LWPOLYLINE
  5
C4
  8
P
 62
0
370
-1
  6
CONTINUOUS
100
AcDbEntity
100
AcDbPolyline
 90
33
 70
0
 10
75.0
 20
225.88888888888891
 10
74.555555555555557
 20
225.88888888888891
 10
74.111111111111114
 20
225.88888888888891
 10
73.777777777777771
 20
225.77777777777777
 10
73.444444444444443
 20
225.66666666666669
 10
72.888888888888886
 20
225.55555555555554
 10
72.555555555555557
 20
225.33333333333331
 10
72.333333333333329
 20
225.11111111111109
 10
72.333333333333329
 20
224.88888888888891
 10
72.333333333333329
 20
224.66666666666669
 10
72.555555555555557
 20
224.44444444444446
 10
72.888888888888886
 20
224.22222222222223
 10
73.444444444444443
 20
224.11111111111109
 10
73.777777777777771
 20
224.0
 10
74.222222222222229
 20
224.0
 10
74.555555555555557
 20
223.88888888888891
 10
75.0
 20
223.88888888888891
 10
75.333333333333329
 20
223.88888888888891
 10
75.777777777777771
 20
224.0
 10
76.111111111111114
 20
224.0
 10
76.555555555555557
 20
224.11111111111109
 10
77.0
 20
224.22222222222223
 10
77.333333333333329
 20
224.44444444444446
 10
77.555555555555557
 20
224.66666666666669
 10
77.555555555555557
 20
224.88888888888891
 10
77.555555555555557
 20
225.11111111111109
 10
77.333333333333329
 20
225.33333333333331
 10
77.0
 20
225.55555555555554
 10
76.555555555555557
 20
225.66666666666669
 10
76.111111111111114
 20
225.77777777777777
 10
75.777777777777771
 20
225.88888888888891
 10
75.333333333333329
 20
225.88888888888891
 10
75.0
 20
225.88888888888891
  0
LWPOLYLINE
  5
C5
  8
P
 62
0
370
-1
  6
CONTINUOUS
100
AcDbEntity
100
AcDbPolyline
 90
41
 70
0
 10
74.444444444444443
 20
243.88888888888891
 10
74.777777777777771
 20
243.88888888888891
 10
75.111111111111114
 20
243.77777777777777
 10
75.444444444444443
 20
243.66666666666669
 10
75.666666666666671
 20
243.44444444444446
 10
75.888888888888886
 20
243.22222222222223
 10
76.0
 20
242.88888888888891
 10
76.111111111111114
 20
242.55555555555554
 10
76.111111111111114
 20
242.22222222222223
 10
76.111111111111114
 20
241.77777777777777
 10
75.888888888888886
 20
241.33333333333331
 10
73.777777777777771
 20
238.0
 10
75.777777777777771
 20
238.0
 10
76.111111111111114
 20
237.88888888888891
 10
76.111111111111114
 20
237.66666666666669
 10
76.111111111111114
 20
237.44444444444446
 10
75.777777777777771
 20
237.33333333333331
 10
73.222222222222229
 20
237.33333333333331
 10
72.888888888888886
 20
237.44444444444446
 10
72.888888888888886
 20
237.66666666666669
 10
72.888888888888886
 20
237.77777777777777
 10
75.333333333333329
 20
241.66666666666669
 10
75.444444444444443
 20
242.0
 10
75.444444444444443
 20
242.22222222222223
 10
75.444444444444443
 20
242.66666666666669
 10
75.222222222222229
 20
243.0
 10
74.888888888888886
 20
243.22222222222223
 10
74.444444444444443
 20
243.22222222222223
 10
74.222222222222229
 20
243.22222222222223
 10
74.0
 20
243.0
 10
73.666666666666671
 20
242.77777777777777
 10
73.444444444444443
 20
242.44444444444446
 10
73.222222222222229
 20
242.22222222222223
 10
72.888888888888886
 20
242.33333333333331
 10
72.888888888888886
 20
242.55555555555554
 10
72.888888888888886
 20
242.77777777777777
 10
73.0
 20
243.0
 10
73.222222222222229
 20
243.22222222222223
 10
73.555555555555557
 20
243.66666666666669
 10
74.0
 20
243.88888888888891
 10
74.444444444444443
 20
243.88888888888891
  0
LWPOLYLINE
  5
C6
  8
P
 62
0
370
-1
  6
CONTINUOUS
100
AcDbEntity
100
AcDbPolyline
 90
5
 70
0
 10
269.33333333333331
 20
337.44444444444446
 10
264.44444444444446
 20
336.55555555555554
 10
265.11111111111109
 20
334.88888888888891
 10
265.11111111111109
 20
334.88888888888891
 10
269.33333333333331
 20
337.44444444444446
  0
LWPOLYLINE
  5
C7
  8
P
 62
0
370
-1
  6
CONTINUOUS
100
AcDbEntity
100
AcDbPolyline
 90
3
 70
0
 10
269.33333333333331
 20
337.44444444444446
 10
265.11111111111109
 20
334.88888888888891
 10
269.33333333333331
 20
337.44444444444446
  0
LWPOLYLINE
  5
C8
  8
P
 62
0
370
-1
  6
CONTINUOUS
100
AcDbEntity
100
AcDbPolyline
 90
12
 70
0
 10
275.66666666666669
 20
339.66666666666663
 10
275.77777777777777
 20
339.77777777777777
 10
278.22222222222223
 20
340.0
 10
278.22222222222223
 20
340.0
 10
280.44444444444446
 20
340.33333333333337
 10
280.22222222222223
 20
341.22222222222223
 10
280.22222222222223
 20
341.33333333333337
 10
279.88888888888891
 20
342.22222222222223
 10
279.88888888888891
 20
342.22222222222223
 10
278.22222222222223
 20
341.33333333333337
 10
279.88888888888891
 20
342.22222222222223
 10
275.66666666666669
 20
339.66666666666663
  0
LWPOLYLINE
  5
C9
  8
P
 62
0
370
-1
  6
CONTINUOUS
100
AcDbEntity
100
AcDbPolyline
 90
3
 70
0
 10
278.22222222222223
 20
341.33333333333337
 10
278.22222222222223
 20
341.33333333333337
 10
278.22222222222223
 20
341.33333333333337
  0
LWPOLYLINE
  5
CA
  8
P
 62
0
370
-1
  6
CONTINUOUS
100
AcDbEntity
100
AcDbPolyline
 90
3
 70
0
 10
278.22222222222223
 20
341.33333333333337
 10
275.77777777777777
 20
339.77777777777777
 10
278.22222222222223
 20
341.33333333333337
  0
LWPOLYLINE
  5
CB
  8
P
 62
0
370
-1
  6
CONTINUOUS
100
AcDbEntity
100
AcDbPolyline
 90
3
 70
0
 10
275.77777777777777
 20
339.77777777777777
 10
275.66666666666669
 20
339.66666666666663
 10
275.77777777777777
 20
339.77777777777777
  0
LWPOLYLINE
  5
CC
  8
P
 62
0
370
-1
  6
CONTINUOUS
100
AcDbEntity
100
AcDbPolyline
 90
25
 70
0
 10
288.33333333333331
 20
351.77777777777777
 10
290.11111111111109
 20
350.44444444444446
 10
290.22222222222223
 20
350.33333333333337
 10
290.22222222222223
 20
350.11111111111109
 10
290.0
 20
349.88888888888891
 10
289.66666666666669
 20
350.0
 10
288.22222222222223
 20
351.11111111111109
 10
287.66666666666669
 20
349.22222222222223
 10
287.55555555555554
 20
349.0
 10
287.22222222222223
 20
349.0
 10
287.11111111111109
 20
349.22222222222223
 10
287.11111111111109
 20
349.44444444444446
 10
287.55555555555554
 20
351.44444444444446
 10
285.88888888888891
 20
352.77777777777777
 10
285.77777777777777
 20
352.88888888888891
 10
285.77777777777777
 20
353.22222222222223
 10
285.88888888888891
 20
353.33333333333337
 10
286.22222222222223
 20
353.33333333333337
 10
287.77777777777777
 20
352.22222222222223
 10
288.22222222222223
 20
354.0
 10
288.44444444444446
 20
354.22222222222223
 10
288.66666666666669
 20
354.22222222222223
 10
288.88888888888891
 20
354.11111111111109
 10
288.88888888888891
 20
353.88888888888891
 10
288.33333333333331
 20
351.77777777777777
  0
LWPOLYLINE
  5
CD
  8
P
 62
0
370
-1
  6
CONTINUOUS
100
AcDbEntity
100
AcDbPolyline
 90
31
 70
0
 10
281.88888888888891
 20
348.55555555555554
 10
281.77777777777777
 20
348.66666666666663
 10
281.44444444444446
 20
353.44444444444446
 10
281.55555555555554
 20
353.66666666666663
 10
281.66666666666669
 20
353.77777777777777
 10
282.0
 20
353.77777777777777
 10
282.11111111111109
 20
353.55555555555554
 10
282.11111111111109
 20
353.44444444444446
 10
282.44444444444446
 20
349.11111111111109
 10
283.88888888888891
 20
349.66666666666663
 10
283.55555555555554
 20
350.55555555555554
 10
283.55555555555554
 20
350.77777777777777
 10
283.77777777777777
 20
351.0
 10
284.0
 20
351.0
 10
284.22222222222223
 20
350.77777777777777
 10
284.55555555555554
 20
349.88888888888891
 10
285.11111111111109
 20
350.11111111111109
 10
285.44444444444446
 20
350.11111111111109
 10
285.55555555555554
 20
349.88888888888891
 10
285.55555555555554
 20
349.66666666666663
 10
285.33333333333331
 20
349.44444444444446
 10
284.77777777777777
 20
349.22222222222223
 10
285.11111111111109
 20
348.33333333333337
 10
285.11111111111109
 20
348.0
 10
284.88888888888891
 20
347.88888888888891
 10
284.66666666666669
 20
347.88888888888891
 10
284.44444444444446
 20
348.11111111111109
 10
284.11111111111109
 20
349.0
 10
282.22222222222223
 20
348.33333333333337
 10
282.0
 20
348.33333333333337
 10
281.88888888888891
 20
348.55555555555554
  0
LWPOLYLINE
  5
CE
  8
P
 62
0
370
-1
  6
CONTINUOUS
100
AcDbEntity
100
AcDbPolyline
 90
16
 70
0
 10
304.66666666666669
 20
358.66666666666663
 10
305.22222222222223
 20
357.11111111111109
 10
305.33333333333331
 20
356.77777777777777
 10
305.66666666666669
 20
356.55555555555554
 10
306.11111111111109
 20
356.44444444444446
 10
306.44444444444446
 20
356.44444444444446
 10
306.77777777777777
 20
356.66666666666663
 10
307.0
 20
357.0
 10
307.11111111111109
 20
357.33333333333337
 10
307.0
 20
357.77777777777777
 10
306.77777777777777
 20
358.33333333333337
 10
306.66666666666669
 20
358.66666666666663
 10
306.33333333333331
 20
358.88888888888891
 10
305.88888888888891
 20
359.0
 10
305.55555555555554
 20
359.0
 10
304.66666666666669
 20
358.66666666666663
  0
LWPOLYLINE
  5
CF
  8
P
 62
0
370
-1
  6
CONTINUOUS
100
AcDbEntity
100
AcDbPolyline
 90
48
 70
0
 10
305.0
 20
362.33333333333337
 10
305.33333333333331
 20
362.33333333333337
 10
305.44444444444446
 20
362.11111111111109
 10
305.44444444444446
 20
361.88888888888891
 10
305.44444444444446
 20
361.77777777777777
 10
305.11111111111109
 20
361.55555555555554
 10
304.88888888888891
 20
361.22222222222223
 10
304.66666666666669
 20
360.88888888888891
 10
304.44444444444446
 20
360.55555555555554
 10
304.44444444444446
 20
360.22222222222223
 10
304.33333333333331
 20
359.88888888888891
 10
304.44444444444446
 20
359.22222222222223
 10
305.33333333333331
 20
359.55555555555554
 10
305.66666666666669
 20
359.66666666666663
 10
306.0
 20
359.66666666666663
 10
306.33333333333331
 20
359.66666666666663
 10
306.55555555555554
 20
359.55555555555554
 10
306.88888888888891
 20
359.33333333333337
 10
307.11111111111109
 20
359.11111111111109
 10
307.33333333333331
 20
358.88888888888891
 10
307.44444444444446
 20
358.55555555555554
 10
307.66666666666669
 20
358.0
 10
307.77777777777777
 20
357.66666666666663
 10
307.77777777777777
 20
357.33333333333337
 10
307.66666666666669
 20
357.0
 10
307.55555555555554
 20
356.66666666666663
 10
307.44444444444446
 20
356.44444444444446
 10
307.22222222222223
 20
356.22222222222223
 10
307.0
 20
356.0
 10
306.66666666666669
 20
355.88888888888891
 10
306.33333333333331
 20
355.77777777777777
 10
306.0
 20
355.77777777777777
 10
305.66666666666669
 20
355.77777777777777
 10
305.44444444444446
 20
355.88888888888891
 10
305.11111111111109
 20
356.11111111111109
 10
304.88888888888891
 20
356.33333333333337
 10
304.66666666666669
 20
356.55555555555554
 10
304.55555555555554
 20
356.88888888888891
 10
303.88888888888891
 20
358.66666666666663
 10
303.77777777777777
 20
359.22222222222223
 10
303.66666666666669
 20
359.77777777777777
 10
303.77777777777777
 20
360.33333333333337
 10
303.88888888888891
 20
360.77777777777777
 10
304.11111111111109
 20
361.22222222222223
 10
304.33333333333331
 20
361.55555555555554
 10
304.55555555555554
 20
361.88888888888891
 10
304.77777777777777
 20
362.11111111111109
 10
305.0
 20
362.33333333333337
  0
LWPOLYLINE
  5
D0
  8
P
 62
0
370
-1
  6
CONTINUOUS
100
AcDbEntity
100
AcDbPolyline
 90
19
 70
0
 10
303.22222222222223
 20
355.22222222222223
 10
303.55555555555554
 20
355.22222222222223
 10
303.66666666666669
 20
355.0
 10
303.66666666666669
 20
354.88888888888891
 10
303.77777777777777
 20
354.55555555555554
 10
303.77777777777777
 20
354.11111111111109
 10
303.77777777777777
 20
353.88888888888891
 10
303.88888888888891
 20
353.55555555555554
 10
303.77777777777777
 20
353.33333333333337
 10
303.66666666666669
 20
353.22222222222223
 10
303.33333333333331
 20
353.22222222222223
 10
303.22222222222223
 20
353.44444444444446
 10
303.22222222222223
 20
353.55555555555554
 10
303.11111111111109
 20
353.88888888888891
 10
303.11111111111109
 20
354.33333333333337
 10
303.11111111111109
 20
354.55555555555554
 10
303.11111111111109
 20
354.88888888888891
 10
303.11111111111109
 20
355.0
 10
303.22222222222223
 20
355.22222222222223
  0
LWPOLYLINE
  5
D1
  8
P
 62
0
370
-1
  6
CONTINUOUS
100
AcDbEntity
100
AcDbPolyline
 90
61
 70
0
 10
298.77777777777777
 20
356.77777777777777
 10
298.22222222222223
 20
356.44444444444446
 10
298.0
 20
356.44444444444446
 10
297.77777777777777
 20
356.66666666666663
 10
297.77777777777777
 20
357.0
 10
298.0
 20
357.11111111111109
 10
298.55555555555554
 20
357.33333333333337
 10
298.88888888888891
 20
357.55555555555554
 10
299.11111111111109
 20
357.88888888888891
 10
299.22222222222223
 20
358.22222222222223
 10
299.22222222222223
 20
358.55555555555554
 10
299.0
 20
358.88888888888891
 10
298.66666666666669
 20
359.22222222222223
 10
298.33333333333331
 20
359.22222222222223
 10
297.88888888888891
 20
359.22222222222223
 10
296.66666666666669
 20
358.77777777777777
 10
296.44444444444446
 20
358.77777777777777
 10
296.22222222222223
 20
359.0
 10
296.22222222222223
 20
359.22222222222223
 10
296.44444444444446
 20
359.33333333333337
 10
297.66666666666669
 20
359.77777777777777
 10
298.0
 20
359.88888888888891
 10
298.33333333333331
 20
359.88888888888891
 10
298.66666666666669
 20
359.88888888888891
 10
299.0
 20
359.77777777777777
 10
299.22222222222223
 20
359.55555555555554
 10
299.44444444444446
 20
359.33333333333337
 10
299.66666666666669
 20
359.11111111111109
 10
299.77777777777777
 20
358.88888888888891
 10
299.88888888888891
 20
358.44444444444446
 10
299.88888888888891
 20
358.11111111111109
 10
299.77777777777777
 20
357.77777777777777
 10
299.66666666666669
 20
357.33333333333337
 10
300.0
 20
357.22222222222223
 10
300.33333333333331
 20
357.0
 10
300.55555555555554
 20
356.66666666666663
 10
300.66666666666669
 20
356.33333333333337
 10
300.88888888888891
 20
355.77777777777777
 10
301.0
 20
355.44444444444446
 10
301.0
 20
355.11111111111109
 10
301.0
 20
354.77777777777777
 10
300.88888888888891
 20
354.44444444444446
 10
300.66666666666669
 20
354.22222222222223
 10
300.55555555555554
 20
354.0
 10
300.22222222222223
 20
353.77777777777777
 10
300.0
 20
353.66666666666663
 10
298.66666666666669
 20
353.22222222222223
 10
298.44444444444446
 20
353.11111111111109
 10
298.33333333333331
 20
353.33333333333337
 10
298.33333333333331
 20
353.66666666666663
 10
298.44444444444446
 20
353.77777777777777
 10
299.77777777777777
 20
354.22222222222223
 10
300.11111111111109
 20
354.44444444444446
 10
300.33333333333331
 20
354.77777777777777
 10
300.33333333333331
 20
355.11111111111109
 10
300.33333333333331
 20
355.55555555555554
 10
300.11111111111109
 20
356.11111111111109
 10
299.88888888888891
 20
356.44444444444446
 10
299.55555555555554
 20
356.66666666666663
 10
299.22222222222223
 20
356.77777777777777
 10
298.77777777777777
 20
356.77777777777777
  0
LWPOLYLINE
  5
D2
  8
P
 62
0
370
-1
  6
CONTINUOUS
100
AcDbEntity
100
AcDbPolyline
 90
59
 70
0
 10
294.55555555555554
 20
351.33333333333337
 10
294.22222222222223
 20
351.33333333333337
 10
293.88888888888891
 20
351.22222222222223
 10
293.55555555555554
 20
351.22222222222223
 10
293.22222222222223
 20
351.22222222222223
 10
292.88888888888891
 20
349.22222222222223
 10
292.22222222222223
 20
349.33333333333337
 10
292.55555555555554
 20
351.33333333333337
 10
292.22222222222223
 20
351.44444444444446
 10
291.88888888888891
 20
351.66666666666663
 10
291.55555555555554
 20
351.88888888888891
 10
291.22222222222223
 20
352.11111111111109
 10
291.0
 20
352.44444444444446
 10
290.77777777777777
 20
352.77777777777777
 10
290.55555555555554
 20
353.11111111111109
 10
290.44444444444446
 20
353.44444444444446
 10
290.33333333333331
 20
353.77777777777777
 10
290.22222222222223
 20
354.11111111111109
 10
290.22222222222223
 20
354.44444444444446
 10
290.22222222222223
 20
354.77777777777777
 10
290.22222222222223
 20
355.33333333333337
 10
290.33333333333331
 20
355.66666666666663
 10
290.44444444444446
 20
356.0
 10
290.55555555555554
 20
356.22222222222223
 10
290.77777777777777
 20
356.55555555555554
 10
291.22222222222223
 20
357.0
 10
291.44444444444446
 20
357.22222222222223
 10
291.66666666666669
 20
357.33333333333337
 10
292.0
 20
357.55555555555554
 10
292.33333333333331
 20
357.66666666666663
 10
292.66666666666669
 20
357.77777777777777
 10
293.0
 20
357.77777777777777
 10
293.33333333333331
 20
357.88888888888891
 10
293.66666666666669
 20
357.88888888888891
 10
294.0
 20
359.88888888888891
 10
294.66666666666669
 20
359.66666666666663
 10
294.33333333333331
 20
357.66666666666663
 10
294.66666666666669
 20
357.55555555555554
 10
295.11111111111109
 20
357.33333333333337
 10
295.33333333333331
 20
357.22222222222223
 10
295.66666666666669
 20
356.88888888888891
 10
295.88888888888891
 20
356.66666666666663
 10
296.11111111111109
 20
356.33333333333337
 10
296.33333333333331
 20
356.0
 10
296.55555555555554
 20
355.66666666666663
 10
296.66666666666669
 20
355.33333333333337
 10
296.66666666666669
 20
355.0
 10
296.77777777777777
 20
354.66666666666663
 10
296.77777777777777
 20
354.33333333333337
 10
296.66666666666669
 20
353.66666666666663
 10
296.55555555555554
 20
353.44444444444446
 10
296.44444444444446
 20
353.11111111111109
 10
296.33333333333331
 20
352.77777777777777
 10
296.11111111111109
 20
352.55555555555554
 10
295.77777777777777
 20
352.0
 10
295.44444444444446
 20
351.88888888888891
 10
295.22222222222223
 20
351.66666666666663
 10
294.88888888888891
 20
351.55555555555554
 10
294.55555555555554
 20
351.33333333333337
  0
LWPOLYLINE
  5
D3
  8
P
 62
0
370
-1
  6
CONTINUOUS
100
AcDbEntity
100
AcDbPolyline
 90
16
 70
0
 10
294.22222222222223
 20
357.0
 10
293.44444444444446
 20
351.88888888888891
 10
293.88888888888891
 20
352.0
 10
294.33333333333331
 20
352.11111111111109
 10
294.77777777777777
 20
352.33333333333337
 10
295.22222222222223
 20
352.55555555555554
 10
295.55555555555554
 20
353.0
 10
295.77777777777777
 20
353.44444444444446
 10
296.0
 20
353.88888888888891
 10
296.0
 20
354.33333333333337
 10
296.0
 20
354.88888888888891
 10
295.77777777777777
 20
355.33333333333337
 10
295.55555555555554
 20
355.88888888888891
 10
295.22222222222223
 20
356.33333333333337
 10
294.77777777777777
 20
356.66666666666663
 10
294.22222222222223
 20
357.0
  0
LWPOLYLINE
  5
D4
  8
P
 62
0
370
-1
  6
CONTINUOUS
100
AcDbEntity
100
AcDbPolyline
 90
16
 70
0
 10
292.55555555555554
 20
357.0
 10
292.11111111111109
 20
356.77777777777777
 10
291.66666666666669
 20
356.44444444444446
 10
291.33333333333331
 20
356.11111111111109
 10
291.11111111111109
 20
355.66666666666663
 10
291.0
 20
355.22222222222223
 10
290.88888888888891
 20
354.66666666666663
 10
291.0
 20
354.22222222222223
 10
291.11111111111109
 20
353.66666666666663
 10
291.33333333333331
 20
353.11111111111109
 10
291.66666666666669
 20
352.66666666666663
 10
292.11111111111109
 20
352.33333333333337
 10
292.66666666666669
 20
352.11111111111109
 10
293.55555555555554
 20
357.11111111111109
 10
293.0
 20
357.11111111111109
 10
292.55555555555554
 20
357.0
  0
LWPOLYLINE
  5
D5
  8
P
 62
0
370
-1
  6
CONTINUOUS
100
AcDbEntity
100
AcDbPolyline
 90
7
 70
0
 10
97.111111111111114
 20
338.44444444444446
 10
98.111111111111114
 20
343.22222222222223
 10
97.333333333333329
 20
343.22222222222223
 10
97.111111111111114
 20
343.22222222222223
 10
96.222222222222229
 20
343.22222222222223
 10
96.222222222222229
 20
343.22222222222223
 10
97.111111111111114
 20
338.44444444444446
  0
LWPOLYLINE
  5
D6
  8
P
 62
0
370
-1
  6
CONTINUOUS
100
AcDbEntity
100
AcDbPolyline
 90
3
 70
0
 10
97.111111111111114
 20
338.44444444444446
 10
96.222222222222229
 20
343.22222222222223
 10
97.111111111111114
 20
338.44444444444446
  0
LWPOLYLINE
  5
D7
  8
P
 62
0
370
-1
  6
CONTINUOUS
100
AcDbEntity
100
AcDbPolyline
 90
7
 70
0
 10
97.111111111111114
 20
395.44444444444446
 10
96.222222222222229
 20
390.55555555555554
 10
97.111111111111114
 20
390.55555555555554
 10
97.333333333333329
 20
390.55555555555554
 10
98.111111111111114
 20
390.55555555555554
 10
98.111111111111114
 20
390.55555555555554
 10
97.111111111111114
 20
395.44444444444446
  0
LWPOLYLINE
  5
D8
  8
P
 62
0
370
-1
  6
CONTINUOUS
100
AcDbEntity
100
AcDbPolyline
 90
3
 70
0
 10
97.111111111111114
 20
395.44444444444446
 10
98.111111111111114
 20
390.55555555555554
 10
97.111111111111114
 20
395.44444444444446
  0
LWPOLYLINE
  5
D9
  8
P
 62
0
370
-1
  6
CONTINUOUS
100
AcDbEntity
100
AcDbPolyline
 90
33
 70
0
 10
91.0
 20
371.22222222222223
 10
90.555555555555557
 20
371.11111111111109
 10
90.111111111111114
 20
371.11111111111109
 10
89.777777777777771
 20
371.11111111111109
 10
89.444444444444443
 20
371.0
 10
88.888888888888886
 20
370.88888888888891
 10
88.555555555555557
 20
370.66666666666663
 10
88.333333333333329
 20
370.44444444444446
 10
88.333333333333329
 20
370.22222222222223
 10
88.333333333333329
 20
369.88888888888891
 10
88.555555555555557
 20
369.66666666666663
 10
88.888888888888886
 20
369.55555555555554
 10
89.444444444444443
 20
369.33333333333337
 10
89.777777777777771
 20
369.33333333333337
 10
90.222222222222229
 20
369.22222222222223
 10
90.555555555555557
 20
369.22222222222223
 10
91.0
 20
369.22222222222223
 10
91.333333333333329
 20
369.22222222222223
 10
91.777777777777771
 20
369.22222222222223
 10
92.111111111111114
 20
369.33333333333337
 10
92.555555555555557
 20
369.33333333333337
 10
93.0
 20
369.55555555555554
 10
93.333333333333329
 20
369.66666666666663
 10
93.555555555555557
 20
369.88888888888891
 10
93.555555555555557
 20
370.22222222222223
 10
93.555555555555557
 20
370.44444444444446
 10
93.333333333333329
 20
370.66666666666663
 10
93.0
 20
370.88888888888891
 10
92.555555555555557
 20
371.0
 10
92.111111111111114
 20
371.11111111111109
 10
91.777777777777771
 20
371.11111111111109
 10
91.333333333333329
 20
371.11111111111109
 10
91.0
 20
371.22222222222223
  0
LWPOLYLINE
  5
DA
  8
P
 62
0
370
-1
  6
CONTINUOUS
100
AcDbEntity
100
AcDbPolyline
 90
37
 70
0
 10
91.0
 20
371.77777777777777
 10
91.555555555555557
 20
371.77777777777777
 10
92.111111111111114
 20
371.77777777777777
 10
92.555555555555557
 20
371.66666666666663
 10
93.0
 20
371.55555555555554
 10
93.333333333333329
 20
371.44444444444446
 10
93.555555555555557
 20
371.33333333333337
 10
93.888888888888886
 20
371.0
 10
94.222222222222229
 20
370.66666666666663
 10
94.222222222222229
 20
370.22222222222223
 10
94.222222222222229
 20
369.77777777777777
 10
94.0
 20
369.33333333333337
 10
93.555555555555557
 20
369.11111111111109
 10
93.333333333333329
 20
368.88888888888891
 10
93.0
 20
368.77777777777777
 10
92.555555555555557
 20
368.66666666666663
 10
92.111111111111114
 20
368.55555555555554
 10
91.555555555555557
 20
368.55555555555554
 10
91.0
 20
368.55555555555554
 10
90.333333333333329
 20
368.55555555555554
 10
89.888888888888886
 20
368.55555555555554
 10
89.333333333333329
 20
368.66666666666663
 10
88.888888888888886
 20
368.77777777777777
 10
88.666666666666671
 20
368.88888888888891
 10
88.333333333333329
 20
369.11111111111109
 10
88.0
 20
369.33333333333337
 10
87.777777777777771
 20
369.77777777777777
 10
87.666666666666671
 20
370.22222222222223
 10
87.777777777777771
 20
370.66666666666663
 10
88.0
 20
371.0
 10
88.333333333333329
 20
371.33333333333337
 10
88.666666666666671
 20
371.44444444444446
 10
88.888888888888886
 20
371.55555555555554
 10
89.333333333333329
 20
371.66666666666663
 10
89.888888888888886
 20
371.77777777777777
 10
90.333333333333329
 20
371.77777777777777
 10
91.0
 20
371.77777777777777
  0
LWPOLYLINE
  5
DB
  8
P
 62
0
370
-1
  6
CONTINUOUS
100
AcDbEntity
100
AcDbPolyline
 90
61
 70
0
 10
91.0
 20
365.66666666666663
 10
91.0
 20
365.0
 10
90.888888888888886
 20
364.77777777777777
 10
90.666666666666671
 20
364.66666666666663
 10
90.333333333333329
 20
364.77777777777777
 10
90.333333333333329
 20
365.0
 10
90.333333333333329
 20
365.66666666666663
 10
90.222222222222229
 20
366.11111111111109
 10
90.0
 20
366.44444444444446
 10
89.666666666666671
 20
366.66666666666663
 10
89.333333333333329
 20
366.66666666666663
 10
88.888888888888886
 20
366.66666666666663
 10
88.555555555555557
 20
366.44444444444446
 10
88.444444444444443
 20
366.11111111111109
 10
88.333333333333329
 20
365.66666666666663
 10
88.333333333333329
 20
364.33333333333337
 10
88.222222222222229
 20
364.11111111111109
 10
88.0
 20
364.0
 10
87.777777777777771
 20
364.11111111111109
 10
87.666666666666671
 20
364.33333333333337
 10
87.666666666666671
 20
365.66666666666663
 10
87.666666666666671
 20
366.0
 10
87.777777777777771
 20
366.33333333333337
 10
87.888888888888886
 20
366.66666666666663
 10
88.111111111111114
 20
366.88888888888891
 10
88.444444444444443
 20
367.11111111111109
 10
88.666666666666671
 20
367.22222222222223
 10
89.0
 20
367.33333333333337
 10
89.333333333333329
 20
367.33333333333337
 10
89.666666666666671
 20
367.33333333333337
 10
90.0
 20
367.22222222222223
 10
90.333333333333329
 20
367.0
 10
90.666666666666671
 20
366.66666666666663
 10
90.888888888888886
 20
367.0
 10
91.222222222222229
 20
367.22222222222223
 10
91.555555555555557
 20
367.33333333333337
 10
92.0
 20
367.33333333333337
 10
92.555555555555557
 20
367.33333333333337
 10
92.888888888888886
 20
367.33333333333337
 10
93.222222222222229
 20
367.22222222222223
 10
93.555555555555557
 20
367.11111111111109
 10
93.777777777777771
 20
366.88888888888891
 10
94.0
 20
366.66666666666663
 10
94.111111111111114
 20
366.33333333333337
 10
94.222222222222229
 20
366.0
 10
94.222222222222229
 20
365.66666666666663
 10
94.222222222222229
 20
364.33333333333337
 10
94.222222222222229
 20
364.11111111111109
 10
93.888888888888886
 20
364.0
 10
93.666666666666671
 20
364.11111111111109
 10
93.555555555555557
 20
364.33333333333337
 10
93.555555555555557
 20
365.66666666666663
 10
93.555555555555557
 20
366.11111111111109
 10
93.333333333333329
 20
366.44444444444446
 10
93.0
 20
366.66666666666663
 10
92.555555555555557
 20
366.66666666666663
 10
92.0
 20
366.66666666666663
 10
91.555555555555557
 20
366.66666666666663
 10
91.222222222222229
 20
366.44444444444446
 10
91.0
 20
366.11111111111109
 10
91.0
 20
365.66666666666663
  0
LWPOLYLINE
  5
DC
  8
P
 62
0
370
-1
  6
CONTINUOUS
100
AcDbEntity
100
AcDbPolyline
 90
7
 70
0
 10
272.44444444444446
 20
410.77777777777777
 10
267.66666666666669
 20
411.66666666666663
 10
267.66666666666669
 20
410.88888888888891
 10
267.66666666666669
 20
410.77777777777777
 10
267.66666666666669
 20
409.77777777777777
 10
267.66666666666669
 20
409.77777777777777
 10
272.44444444444446
 20
410.77777777777777
  0
LWPOLYLINE
  5
DD
  8
P
 62
0
370
-1
  6
CONTINUOUS
100
AcDbEntity
100
AcDbPolyline
 90
3
 70
0
 10
272.44444444444446
 20
410.77777777777777
 10
267.66666666666669
 20
409.77777777777777
 10
272.44444444444446
 20
410.77777777777777
  0
LWPOLYLINE
  5
DE
  8
P
 62
0
370
-1
  6
CONTINUOUS
100
AcDbEntity
100
AcDbPolyline
 90
7
 70
0
 10
113.77777777777777
 20
410.77777777777777
 10
118.55555555555556
 20
409.77777777777777
 10
118.55555555555556
 20
410.77777777777777
 10
118.55555555555556
 20
410.88888888888891
 10
118.55555555555556
 20
411.66666666666663
 10
118.55555555555556
 20
411.66666666666663
 10
113.77777777777777
 20
410.77777777777777
  0
LWPOLYLINE
  5
DF
  8
P
 62
0
370
-1
  6
CONTINUOUS
100
AcDbEntity
100
AcDbPolyline
 90
3
 70
0
 10
113.77777777777777
 20
410.77777777777777
 10
118.55555555555556
 20
411.66666666666663
 10
113.77777777777777
 20
410.77777777777777
  0
LWPOLYLINE
  5
E0
  8
P
 62
0
370
-1
  6
CONTINUOUS
100
AcDbEntity
100
AcDbPolyline
 90
31
 70
0
 10
193.44444444444446
 20
415.33333333333337
 10
193.44444444444446
 20
415.33333333333337
 10
194.77777777777777
 20
420.0
 10
194.88888888888889
 20
420.22222222222223
 10
195.11111111111111
 20
420.22222222222223
 10
195.33333333333334
 20
420.11111111111109
 10
195.44444444444446
 20
419.88888888888891
 10
195.44444444444446
 20
419.77777777777777
 10
194.22222222222223
 20
415.66666666666663
 10
195.77777777777777
 20
415.66666666666663
 10
195.77777777777777
 20
416.55555555555554
 10
195.88888888888889
 20
416.88888888888891
 10
196.11111111111111
 20
416.88888888888891
 10
196.33333333333334
 20
416.88888888888891
 10
196.44444444444446
 20
416.55555555555554
 10
196.44444444444446
 20
415.66666666666663
 10
197.11111111111111
 20
415.66666666666663
 10
197.33333333333334
 20
415.55555555555554
 10
197.44444444444446
 20
415.33333333333337
 10
197.33333333333334
 20
415.0
 10
197.11111111111111
 20
415.0
 10
196.44444444444446
 20
415.0
 10
196.44444444444446
 20
414.0
 10
196.33333333333334
 20
413.66666666666663
 10
196.11111111111111
 20
413.66666666666663
 10
195.88888888888889
 20
413.66666666666663
 10
195.77777777777777
 20
414.0
 10
195.77777777777777
 20
415.0
 10
193.77777777777777
 20
415.0
 10
193.55555555555554
 20
415.0
 10
193.44444444444446
 20
415.33333333333337
  0
LWPOLYLINE
  5
E1
  8
P
 62
0
370
-1
  6
CONTINUOUS
100
AcDbEntity
100
AcDbPolyline
 90
19
 70
0
 10
190.66666666666666
 20
414.33333333333337
 10
191.0
 20
414.33333333333337
 10
191.33333333333334
 20
414.55555555555554
 10
191.55555555555554
 20
414.88888888888891
 10
191.66666666666666
 20
415.33333333333337
 10
191.66666666666666
 20
415.88888888888891
 10
191.55555555555554
 20
416.33333333333337
 10
191.33333333333334
 20
416.66666666666663
 10
191.0
 20
416.88888888888891
 10
190.66666666666666
 20
416.88888888888891
 10
190.22222222222223
 20
416.88888888888891
 10
190.0
 20
416.66666666666663
 10
189.77777777777777
 20
416.33333333333337
 10
189.66666666666666
 20
415.88888888888891
 10
189.66666666666666
 20
415.33333333333337
 10
189.77777777777777
 20
414.88888888888891
 10
190.0
 20
414.55555555555554
 10
190.22222222222223
 20
414.33333333333337
 10
190.66666666666666
 20
414.33333333333337
  0
LWPOLYLINE
  5
E2
  8
P
 62
0
370
-1
  6
CONTINUOUS
100
AcDbEntity
100
AcDbPolyline
 90
52
 70
0
 10
190.66666666666666
 20
413.66666666666663
 10
190.33333333333334
 20
413.66666666666663
 10
190.0
 20
413.77777777777777
 10
189.77777777777777
 20
413.88888888888891
 10
189.44444444444446
 20
414.11111111111109
 10
189.22222222222223
 20
414.33333333333337
 10
189.11111111111111
 20
414.66666666666663
 10
189.0
 20
415.0
 10
189.0
 20
415.33333333333337
 10
189.0
 20
415.88888888888891
 10
189.0
 20
416.33333333333337
 10
189.11111111111111
 20
416.66666666666663
 10
189.33333333333334
 20
417.0
 10
189.66666666666666
 20
417.22222222222223
 10
189.33333333333334
 20
417.55555555555554
 10
189.11111111111111
 20
417.88888888888891
 10
189.0
 20
418.22222222222223
 10
189.0
 20
418.55555555555554
 10
189.0
 20
418.88888888888891
 10
189.11111111111111
 20
419.22222222222223
 10
189.22222222222223
 20
419.44444444444446
 10
189.44444444444446
 20
419.77777777777777
 10
189.77777777777777
 20
420.0
 10
190.0
 20
420.11111111111109
 10
190.33333333333334
 20
420.22222222222223
 10
190.66666666666666
 20
420.22222222222223
 10
191.0
 20
420.22222222222223
 10
191.33333333333334
 20
420.11111111111109
 10
191.55555555555554
 20
420.0
 10
191.77777777777777
 20
419.77777777777777
 10
192.0
 20
419.44444444444446
 10
192.22222222222223
 20
419.22222222222223
 10
192.22222222222223
 20
418.88888888888891
 10
192.33333333333334
 20
418.55555555555554
 10
192.22222222222223
 20
418.22222222222223
 10
192.11111111111111
 20
417.88888888888891
 10
191.88888888888889
 20
417.55555555555554
 10
191.66666666666666
 20
417.22222222222223
 10
192.0
 20
416.88888888888891
 10
192.22222222222223
 20
416.33333333333337
 10
192.22222222222223
 20
416.22222222222223
 10
192.33333333333334
 20
416.0
 10
192.33333333333334
 20
415.66666666666663
 10
192.33333333333334
 20
415.33333333333337
 10
192.22222222222223
 20
415.0
 10
192.22222222222223
 20
414.66666666666663
 10
192.0
 20
414.33333333333337
 10
191.77777777777777
 20
414.11111111111109
 10
191.55555555555554
 20
413.88888888888891
 10
191.33333333333334
 20
413.77777777777777
 10
191.0
 20
413.66666666666663
 10
190.66666666666666
 20
413.66666666666663
  0
LWPOLYLINE
  5
E3
  8
P
 62
0
370
-1
  6
CONTINUOUS
100
AcDbEntity
100
AcDbPolyline
 90
17
 70
0
 10
190.66666666666666
 20
417.55555555555554
 10
191.0
 20
417.66666666666663
 10
191.33333333333334
 20
417.88888888888891
 10
191.55555555555554
 20
418.22222222222223
 10
191.66666666666666
 20
418.55555555555554
 10
191.55555555555554
 20
419.0
 10
191.33333333333334
 20
419.33333333333337
 10
191.0
 20
419.55555555555554
 10
190.66666666666666
 20
419.55555555555554
 10
190.22222222222223
 20
419.55555555555554
 10
190.0
 20
419.33333333333337
 10
189.77777777777777
 20
419.0
 10
189.66666666666666
 20
418.55555555555554
 10
189.77777777777777
 20
418.22222222222223
 10
190.0
 20
417.88888888888891
 10
190.22222222222223
 20
417.66666666666663
 10
190.66666666666666
 20
417.55555555555554
  0
LWPOLYLINE
  5
E4
  8
P
 62
0
370
-1
  6
CONTINUOUS
100
AcDbEntity
100
AcDbPolyline
 90
7
 70
0
 10
109.88888888888889
 20
399.22222222222223
 10
107.11111111111111
 20
403.44444444444446
 10
106.55555555555556
 20
402.77777777777777
 10
106.44444444444444
 20
402.66666666666663
 10
105.77777777777777
 20
401.77777777777777
 10
105.77777777777777
 20
401.77777777777777
 10
109.88888888888889
 20
399.22222222222223
  0
LWPOLYLINE
  5
E5
  8
P
 62
0
370
-1
  6
CONTINUOUS
100
AcDbEntity
100
AcDbPolyline
 90
3
 70
0
 10
109.88888888888889
 20
399.22222222222223
 10
105.77777777777777
 20
401.77777777777777
 10
109.88888888888889
 20
399.22222222222223
  0
LWPOLYLINE
  5
E6
  8
P
 62
0
370
-1
  6
CONTINUOUS
100
AcDbEntity
100
AcDbPolyline
 90
61
 70
0
 10
103.33333333333333
 20
414.66666666666663
 10
102.88888888888889
 20
415.11111111111109
 10
102.77777777777777
 20
415.33333333333337
 10
102.88888888888889
 20
415.55555555555554
 10
103.11111111111111
 20
415.66666666666663
 10
103.33333333333333
 20
415.55555555555554
 10
103.77777777777777
 20
415.11111111111109
 10
104.11111111111111
 20
414.88888888888891
 10
104.55555555555556
 20
414.77777777777777
 10
104.88888888888889
 20
414.88888888888891
 10
105.22222222222223
 20
415.11111111111109
 10
105.44444444444444
 20
415.44444444444446
 10
105.55555555555556
 20
415.77777777777777
 10
105.44444444444444
 20
416.22222222222223
 10
105.22222222222223
 20
416.55555555555554
 10
104.33333333333333
 20
417.44444444444446
 10
104.11111111111111
 20
417.66666666666663
 10
104.22222222222223
 20
417.88888888888891
 10
104.55555555555556
 20
418.0
 10
104.77777777777777
 20
417.88888888888891
 10
105.66666666666667
 20
417.0
 10
105.88888888888889
 20
416.77777777777777
 10
106.0
 20
416.44444444444446
 10
106.11111111111111
 20
416.11111111111109
 10
106.11111111111111
 20
415.77777777777777
 10
106.11111111111111
 20
415.44444444444446
 10
106.0
 20
415.22222222222223
 10
105.88888888888889
 20
414.88888888888891
 10
105.66666666666667
 20
414.66666666666663
 10
105.33333333333333
 20
414.44444444444446
 10
105.0
 20
414.22222222222223
 10
104.66666666666667
 20
414.22222222222223
 10
104.33333333333333
 20
414.22222222222223
 10
104.33333333333333
 20
413.77777777777777
 10
104.22222222222223
 20
413.44444444444446
 10
104.11111111111111
 20
413.11111111111109
 10
103.77777777777777
 20
412.77777777777777
 10
103.33333333333333
 20
412.33333333333337
 10
103.11111111111111
 20
412.11111111111109
 10
102.77777777777777
 20
412.0
 10
102.55555555555556
 20
411.88888888888891
 10
102.22222222222223
 20
411.88888888888891
 10
101.88888888888889
 20
411.88888888888891
 10
101.55555555555556
 20
412.0
 10
101.22222222222223
 20
412.11111111111109
 10
101.0
 20
412.33333333333337
 10
100.11111111111111
 20
413.22222222222223
 10
100.0
 20
413.44444444444446
 10
100.11111111111111
 20
413.66666666666663
 10
100.33333333333333
 20
413.88888888888891
 10
100.55555555555556
 20
413.66666666666663
 10
101.44444444444444
 20
412.77777777777777
 10
101.77777777777777
 20
412.55555555555554
 10
102.22222222222223
 20
412.44444444444446
 10
102.55555555555556
 20
412.55555555555554
 10
102.88888888888889
 20
412.77777777777777
 10
103.33333333333333
 20
413.22222222222223
 10
103.55555555555556
 20
413.55555555555554
 10
103.66666666666667
 20
414.0
 10
103.55555555555556
 20
414.33333333333337
 10
103.33333333333333
 20
414.66666666666663
  0
LWPOLYLINE
  5
E7
  8
P
 62
0
370
-1
  6
CONTINUOUS
100
AcDbEntity
100
AcDbPolyline
 90
32
 70
0
 10
99.888888888888886
 20
417.33333333333337
 10
99.111111111111114
 20
414.88888888888891
 10
99.0
 20
414.77777777777777
 10
98.777777777777771
 20
414.66666666666663
 10
98.555555555555557
 20
414.77777777777777
 10
98.444444444444443
 20
415.11111111111109
 10
99.333333333333329
 20
417.66666666666663
 10
99.222222222222229
 20
417.77777777777777
 10
98.333333333333329
 20
418.77777777777777
 10
96.666666666666671
 20
417.11111111111109
 10
96.444444444444443
 20
417.0
 10
96.222222222222229
 20
417.11111111111109
 10
96.111111111111114
 20
417.33333333333337
 10
96.222222222222229
 20
417.55555555555554
 10
100.44444444444444
 20
421.77777777777777
 10
100.66666666666667
 20
421.88888888888891
 10
100.88888888888889
 20
421.77777777777777
 10
102.11111111111111
 20
420.55555555555554
 10
102.33333333333333
 20
420.33333333333337
 10
102.55555555555556
 20
420.0
 10
102.66666666666667
 20
419.55555555555554
 10
102.66666666666667
 20
419.22222222222223
 10
102.66666666666667
 20
418.77777777777777
 10
102.55555555555556
 20
418.44444444444446
 10
102.33333333333333
 20
418.11111111111109
 10
102.11111111111111
 20
417.77777777777777
 10
101.77777777777777
 20
417.55555555555554
 10
101.55555555555556
 20
417.44444444444446
 10
101.0
 20
417.22222222222223
 10
100.55555555555556
 20
417.22222222222223
 10
100.22222222222223
 20
417.22222222222223
 10
99.888888888888886
 20
417.33333333333337
  0
LWPOLYLINE
  5
E8
  8
P
 62
0
370
-1
  6
CONTINUOUS
100
AcDbEntity
100
AcDbPolyline
 90
12
 70
0
 10
100.66666666666667
 20
421.11111111111109
 10
98.777777777777771
 20
419.22222222222223
 10
99.777777777777771
 20
418.22222222222223
 10
100.22222222222223
 20
418.0
 10
100.66666666666667
 20
417.88888888888891
 10
101.22222222222223
 20
418.0
 10
101.55555555555556
 20
418.22222222222223
 10
101.88888888888889
 20
418.66666666666663
 10
102.0
 20
419.22222222222223
 10
101.88888888888889
 20
419.66666666666663
 10
101.55555555555556
 20
420.11111111111109
 10
100.66666666666667
 20
421.11111111111109
  0
LWPOLYLINE
  5
E9
  8
P
 62
0
370
-1
  6
CONTINUOUS
100
AcDbEntity
100
AcDbPolyline
 90
7
 70
0
 10
278.22222222222223
 20
423.55555555555554
 10
273.44444444444446
 20
424.55555555555554
 10
273.44444444444446
 20
423.77777777777777
 10
273.44444444444446
 20
423.55555555555554
 10
273.44444444444446
 20
422.55555555555554
 10
273.44444444444446
 20
422.55555555555554
 10
278.22222222222223
 20
423.55555555555554
  0
LWPOLYLINE
  5
EA
  8
P
 62
0
370
-1
  6
CONTINUOUS
100
AcDbEntity
100
AcDbPolyline
 90
3
 70
0
 10
278.22222222222223
 20
423.55555555555554
 10
273.44444444444446
 20
422.55555555555554
 10
278.22222222222223
 20
423.55555555555554
  0
LWPOLYLINE
  5
EB
  8
P
 62
0
370
-1
  6
CONTINUOUS
100
AcDbEntity
100
AcDbPolyline
 90
7
 70
0
 10
108.0
 20
423.55555555555554
 10
112.77777777777777
 20
422.55555555555554
 10
112.77777777777777
 20
423.55555555555554
 10
112.77777777777777
 20
423.77777777777777
 10
112.77777777777777
 20
424.55555555555554
 10
112.77777777777777
 20
424.55555555555554
 10
108.0
 20
423.55555555555554
  0
LWPOLYLINE
  5
EC
  8
P
 62
0
370
-1
  6
CONTINUOUS
100
AcDbEntity
100
AcDbPolyline
 90
3
 70
0
 10
108.0
 20
423.55555555555554
 10
112.77777777777777
 20
424.55555555555554
 10
108.0
 20
423.55555555555554
  0
LWPOLYLINE
  5
ED
  8
P
 62
0
370
-1
  6
CONTINUOUS
100
AcDbEntity
100
AcDbPolyline
 90
33
 70
0
 10
196.44444444444446
 20
430.0
 10
196.44444444444446
 20
430.44444444444446
 10
196.44444444444446
 20
430.88888888888891
 10
196.33333333333334
 20
431.22222222222223
 10
196.22222222222223
 20
431.55555555555554
 10
196.11111111111111
 20
432.11111111111109
 10
195.88888888888889
 20
432.44444444444446
 10
195.66666666666666
 20
432.66666666666669
 10
195.44444444444446
 20
432.66666666666669
 10
195.22222222222223
 20
432.66666666666669
 10
195.0
 20
432.44444444444446
 10
194.77777777777777
 20
432.11111111111109
 10
194.66666666666666
 20
431.55555555555554
 10
194.55555555555554
 20
431.22222222222223
 10
194.55555555555554
 20
430.88888888888891
 10
194.44444444444446
 20
430.44444444444446
 10
194.44444444444446
 20
430.0
 10
194.44444444444446
 20
429.66666666666663
 10
194.55555555555554
 20
429.22222222222223
 10
194.55555555555554
 20
428.88888888888891
 10
194.66666666666666
 20
428.55555555555554
 10
194.77777777777777
 20
428.0
 10
195.0
 20
427.66666666666663
 10
195.22222222222223
 20
427.44444444444446
 10
195.44444444444446
 20
427.44444444444446
 10
195.66666666666666
 20
427.44444444444446
 10
195.88888888888889
 20
427.66666666666663
 10
196.11111111111111
 20
428.0
 10
196.22222222222223
 20
428.55555555555554
 10
196.33333333333334
 20
428.88888888888891
 10
196.44444444444446
 20
429.22222222222223
 10
196.44444444444446
 20
429.66666666666663
 10
196.44444444444446
 20
430.0
  0
LWPOLYLINE
  5
EE
  8
P
 62
0
370
-1
  6
CONTINUOUS
100
AcDbEntity
100
AcDbPolyline
 90
37
 70
0
 10
197.11111111111111
 20
430.0
 10
197.11111111111111
 20
429.44444444444446
 10
197.0
 20
429.0
 10
196.88888888888889
 20
428.44444444444446
 10
196.77777777777777
 20
428.0
 10
196.66666666666666
 20
427.66666666666663
 10
196.55555555555554
 20
427.44444444444446
 10
196.22222222222223
 20
427.11111111111109
 10
195.88888888888889
 20
426.77777777777777
 10
195.44444444444446
 20
426.77777777777777
 10
195.0
 20
426.77777777777777
 10
194.66666666666666
 20
427.11111111111109
 10
194.33333333333334
 20
427.44444444444446
 10
194.22222222222223
 20
427.66666666666663
 10
194.11111111111111
 20
428.0
 10
194.0
 20
428.44444444444446
 10
193.88888888888889
 20
429.0
 10
193.77777777777777
 20
429.44444444444446
 10
193.77777777777777
 20
430.0
 10
193.77777777777777
 20
430.66666666666663
 10
193.88888888888889
 20
431.11111111111109
 10
194.0
 20
431.66666666666663
 10
194.11111111111111
 20
432.11111111111109
 10
194.22222222222223
 20
432.44444444444446
 10
194.33333333333334
 20
432.66666666666669
 10
194.66666666666666
 20
433.0
 10
195.0
 20
433.22222222222223
 10
195.44444444444446
 20
433.33333333333331
 10
195.88888888888889
 20
433.22222222222223
 10
196.22222222222223
 20
433.0
 10
196.55555555555554
 20
432.66666666666669
 10
196.66666666666666
 20
432.33333333333331
 10
196.77777777777777
 20
432.11111111111109
 10
196.88888888888889
 20
431.66666666666663
 10
197.0
 20
431.11111111111109
 10
197.11111111111111
 20
430.66666666666663
 10
197.11111111111111
 20
430.0
  0
LWPOLYLINE
  5
EF
  8
P
 62
0
370
-1
  6
CONTINUOUS
100
AcDbEntity
100
AcDbPolyline
 90
16
 70
0
 10
192.0
 20
430.0
 10
192.0
 20
431.66666666666663
 10
191.88888888888889
 20
432.11111111111109
 10
191.66666666666666
 20
432.44444444444446
 10
191.33333333333334
 20
432.66666666666669
 10
191.0
 20
432.66666666666669
 10
190.55555555555554
 20
432.66666666666669
 10
190.22222222222223
 20
432.44444444444446
 10
190.0
 20
432.11111111111109
 10
190.0
 20
431.66666666666663
 10
190.0
 20
431.0
 10
190.0
 20
430.66666666666663
 10
190.22222222222223
 20
430.33333333333337
 10
190.55555555555554
 20
430.11111111111109
 10
191.0
 20
430.0
 10
192.0
 20
430.0
  0
LWPOLYLINE
  5
F0
  8
P
 62
0
370
-1
  6
CONTINUOUS
100
AcDbEntity
100
AcDbPolyline
 90
49
 70
0
 10
190.33333333333334
 20
426.77777777777777
 10
190.11111111111111
 20
426.88888888888891
 10
190.0
 20
427.11111111111109
 10
190.11111111111111
 20
427.33333333333337
 10
190.44444444444446
 20
427.44444444444446
 10
190.77777777777777
 20
427.66666666666663
 10
191.0
 20
427.77777777777777
 10
191.22222222222223
 20
428.0
 10
191.55555555555554
 20
428.44444444444446
 10
191.77777777777777
 20
428.88888888888891
 10
191.88888888888889
 20
429.44444444444446
 10
191.0
 20
429.44444444444446
 10
190.66666666666666
 20
429.44444444444446
 10
190.33333333333334
 20
429.55555555555554
 10
190.11111111111111
 20
429.66666666666663
 10
189.77777777777777
 20
429.88888888888891
 10
189.55555555555554
 20
430.11111111111109
 10
189.44444444444446
 20
430.44444444444446
 10
189.33333333333334
 20
430.66666666666663
 10
189.33333333333334
 20
431.0
 10
189.33333333333334
 20
431.66666666666663
 10
189.33333333333334
 20
432.0
 10
189.44444444444446
 20
432.33333333333331
 10
189.55555555555554
 20
432.66666666666669
 10
189.77777777777777
 20
432.88888888888891
 10
190.11111111111111
 20
433.11111111111109
 10
190.33333333333334
 20
433.22222222222223
 10
190.66666666666666
 20
433.33333333333331
 10
191.0
 20
433.33333333333331
 10
191.33333333333334
 20
433.33333333333331
 10
191.55555555555554
 20
433.22222222222223
 10
191.88888888888889
 20
433.11111111111109
 10
192.11111111111111
 20
432.88888888888891
 10
192.33333333333334
 20
432.66666666666669
 10
192.44444444444446
 20
432.33333333333331
 10
192.55555555555554
 20
432.0
 10
192.66666666666666
 20
431.66666666666663
 10
192.66666666666666
 20
429.77777777777777
 10
192.55555555555554
 20
429.33333333333337
 10
192.55555555555554
 20
428.88888888888891
 10
192.44444444444446
 20
428.55555555555554
 10
192.22222222222223
 20
428.22222222222223
 10
192.0
 20
427.88888888888891
 10
191.77777777777777
 20
427.55555555555554
 10
191.44444444444446
 20
427.33333333333337
 10
191.0
 20
427.11111111111109
 10
190.77777777777777
 20
426.88888888888891
 10
190.66666666666666
 20
426.77777777777777
 10
190.33333333333334
 20
426.77777777777777
  0
LWPOLYLINE
  5
F1
  8
P
 62
0
370
-1
  6
CONTINUOUS
100
AcDbEntity
100
AcDbPolyline
 90
7
 70
0
 10
85.666666666666671
 20
400.77777777777777
 10
84.666666666666671
 20
396.0
 10
85.666666666666671
 20
396.0
 10
85.777777777777771
 20
396.0
 10
86.555555555555557
 20
396.0
 10
86.555555555555557
 20
396.0
 10
85.666666666666671
 20
400.77777777777777
  0
LWPOLYLINE
  5
F2
  8
P
 62
0
370
-1
  6
CONTINUOUS
100
AcDbEntity
100
AcDbPolyline
 90
3
 70
0
 10
85.666666666666671
 20
400.77777777777777
 10
86.555555555555557
 20
396.0
 10
85.666666666666671
 20
400.77777777777777
  0
LWPOLYLINE
  5
F3
  8
P
 62
0
370
-1
  6
CONTINUOUS
100
AcDbEntity
100
AcDbPolyline
 90
7
 70
0
 10
85.666666666666671
 20
333.0
 10
86.555555555555557
 20
337.44444444444446
 10
85.777777777777771
 20
337.44444444444446
 10
85.666666666666671
 20
337.44444444444446
 10
84.666666666666671
 20
337.44444444444446
 10
84.666666666666671
 20
337.44444444444446
 10
85.666666666666671
 20
333.0
  0
LWPOLYLINE
  5
F4
  8
P
 62
0
370
-1
  6
CONTINUOUS
100
AcDbEntity
100
AcDbPolyline
 90
3
 70
0
 10
85.666666666666671
 20
333.0
 10
84.666666666666671
 20
337.44444444444446
 10
85.666666666666671
 20
333.0
  0
LWPOLYLINE
  5
F5
  8
P
 62
0
370
-1
  6
CONTINUOUS
100
AcDbEntity
100
AcDbPolyline
 90
16
 70
0
 10
79.111111111111114
 20
367.22222222222223
 10
80.777777777777771
 20
367.22222222222223
 10
81.111111111111114
 20
367.33333333333337
 10
81.444444444444443
 20
367.55555555555554
 10
81.666666666666671
 20
367.88888888888891
 10
81.777777777777771
 20
368.22222222222223
 10
81.666666666666671
 20
368.66666666666663
 10
81.444444444444443
 20
369.0
 10
81.111111111111114
 20
369.22222222222223
 10
80.777777777777771
 20
369.22222222222223
 10
80.111111111111114
 20
369.22222222222223
 10
79.777777777777771
 20
369.22222222222223
 10
79.444444444444443
 20
369.0
 10
79.222222222222229
 20
368.66666666666663
 10
79.111111111111114
 20
368.22222222222223
 10
79.111111111111114
 20
367.22222222222223
  0
LWPOLYLINE
  5
F6
  8
P
 62
0
370
-1
  6
CONTINUOUS
100
AcDbEntity
100
AcDbPolyline
 90
48
 70
0
 10
75.777777777777771
 20
368.88888888888891
 10
75.888888888888886
 20
369.11111111111109
 10
76.111111111111114
 20
369.22222222222223
 10
76.333333333333329
 20
369.22222222222223
 10
76.444444444444443
 20
369.11111111111109
 10
76.555555555555557
 20
368.77777777777777
 10
76.777777777777771
 20
368.44444444444446
 10
77.0
 20
368.11111111111109
 10
77.333333333333329
 20
367.77777777777777
 10
77.555555555555557
 20
367.55555555555554
 10
77.888888888888886
 20
367.44444444444446
 10
78.444444444444443
 20
367.33333333333337
 10
78.444444444444443
 20
368.22222222222223
 10
78.444444444444443
 20
368.55555555555554
 10
78.555555555555557
 20
368.88888888888891
 10
78.777777777777771
 20
369.22222222222223
 10
78.888888888888886
 20
369.44444444444446
 10
79.222222222222229
 20
369.66666666666663
 10
79.444444444444443
 20
369.77777777777777
 10
79.777777777777771
 20
369.88888888888891
 10
80.111111111111114
 20
369.88888888888891
 10
80.777777777777771
 20
369.88888888888891
 10
81.111111111111114
 20
369.88888888888891
 10
81.444444444444443
 20
369.77777777777777
 10
81.666666666666671
 20
369.66666666666663
 10
81.888888888888886
 20
369.44444444444446
 10
82.111111111111114
 20
369.22222222222223
 10
82.333333333333329
 20
368.88888888888891
 10
82.333333333333329
 20
368.55555555555554
 10
82.444444444444443
 20
368.22222222222223
 10
82.333333333333329
 20
367.88888888888891
 10
82.333333333333329
 20
367.66666666666663
 10
82.111111111111114
 20
367.33333333333337
 10
81.888888888888886
 20
367.11111111111109
 10
81.666666666666671
 20
366.88888888888891
 10
81.444444444444443
 20
366.77777777777777
 10
81.111111111111114
 20
366.66666666666663
 10
80.777777777777771
 20
366.66666666666663
 10
78.777777777777771
 20
366.55555555555554
 10
78.222222222222229
 20
366.66666666666663
 10
77.777777777777771
 20
366.77777777777777
 10
77.222222222222229
 20
367.0
 10
76.777777777777771
 20
367.33333333333337
 10
76.555555555555557
 20
367.66666666666663
 10
76.222222222222229
 20
368.0
 10
76.0
 20
368.33333333333337
 10
75.888888888888886
 20
368.66666666666663
 10
75.777777777777771
 20
368.88888888888891
  0
LWPOLYLINE
  5
F7
  8
P
 62
0
370
-1
  6
CONTINUOUS
100
AcDbEntity
100
AcDbPolyline
 90
61
 70
0
 10
79.111111111111114
 20
363.77777777777777
 10
79.111111111111114
 20
363.11111111111109
 10
79.0
 20
362.88888888888891
 10
78.777777777777771
 20
362.77777777777777
 10
78.555555555555557
 20
362.88888888888891
 10
78.444444444444443
 20
363.11111111111109
 10
78.444444444444443
 20
363.77777777777777
 10
78.333333333333329
 20
364.11111111111109
 10
78.222222222222229
 20
364.44444444444446
 10
77.888888888888886
 20
364.66666666666663
 10
77.444444444444443
 20
364.77777777777777
 10
77.111111111111114
 20
364.66666666666663
 10
76.777777777777771
 20
364.44444444444446
 10
76.555555555555557
 20
364.11111111111109
 10
76.444444444444443
 20
363.77777777777777
 10
76.444444444444443
 20
362.44444444444446
 10
76.444444444444443
 20
362.22222222222223
 10
76.111111111111114
 20
362.11111111111109
 10
75.888888888888886
 20
362.22222222222223
 10
75.777777777777771
 20
362.44444444444446
 10
75.777777777777771
 20
363.77777777777777
 10
75.888888888888886
 20
364.11111111111109
 10
75.888888888888886
 20
364.44444444444446
 10
76.111111111111114
 20
364.66666666666663
 10
76.333333333333329
 20
365.0
 10
76.555555555555557
 20
365.11111111111109
 10
76.888888888888886
 20
365.33333333333337
 10
77.111111111111114
 20
365.44444444444446
 10
77.444444444444443
 20
365.44444444444446
 10
77.888888888888886
 20
365.33333333333337
 10
78.222222222222229
 20
365.22222222222223
 10
78.555555555555557
 20
365.11111111111109
 10
78.777777777777771
 20
364.77777777777777
 10
79.111111111111114
 20
365.11111111111109
 10
79.333333333333329
 20
365.22222222222223
 10
79.666666666666671
 20
365.44444444444446
 10
80.111111111111114
 20
365.44444444444446
 10
80.777777777777771
 20
365.44444444444446
 10
81.111111111111114
 20
365.44444444444446
 10
81.444444444444443
 20
365.33333333333337
 10
81.666666666666671
 20
365.11111111111109
 10
81.888888888888886
 20
365.0
 10
82.111111111111114
 20
364.66666666666663
 10
82.333333333333329
 20
364.44444444444446
 10
82.333333333333329
 20
364.11111111111109
 10
82.444444444444443
 20
363.77777777777777
 10
82.444444444444443
 20
362.44444444444446
 10
82.333333333333329
 20
362.22222222222223
 10
82.111111111111114
 20
362.11111111111109
 10
81.888888888888886
 20
362.22222222222223
 10
81.777777777777771
 20
362.44444444444446
 10
81.777777777777771
 20
363.77777777777777
 10
81.666666666666671
 20
364.11111111111109
 10
81.444444444444443
 20
364.44444444444446
 10
81.111111111111114
 20
364.66666666666663
 10
80.777777777777771
 20
364.77777777777777
 10
80.111111111111114
 20
364.77777777777777
 10
79.777777777777771
 20
364.66666666666663
 10
79.444444444444443
 20
364.44444444444446
 10
79.222222222222229
 20
364.11111111111109
 10
79.111111111111114
 20
363.77777777777777
  0
LWPOLYLINE
  5
F8
  8
P
 62
0
370
-1
  6
CONTINUOUS
100
AcDbEntity
100
AcDbPolyline
 90
7
 70
0
 10
82.777777777777771
 20
229.0
 10
83.666666666666671
 20
233.77777777777777
 10
82.888888888888886
 20
233.77777777777777
 10
82.777777777777771
 20
233.77777777777777
 10
81.777777777777771
 20
233.77777777777777
 10
81.777777777777771
 20
233.77777777777777
 10
82.777777777777771
 20
229.0
  0
LWPOLYLINE
  5
F9
  8
P
 62
0
370
-1
  6
CONTINUOUS
100
AcDbEntity
100
AcDbPolyline
 90
3
 70
0
 10
82.777777777777771
 20
229.0
 10
81.777777777777771
 20
233.77777777777777
 10
82.777777777777771
 20
229.0
  0
LWPOLYLINE
  5
FA
  8
P
 62
0
370
-1
  6
CONTINUOUS
100
AcDbEntity
100
AcDbPolyline
 90
7
 70
0
 10
82.777777777777771
 20
227.44444444444446
 10
81.777777777777771
 20
222.88888888888891
 10
82.777777777777771
 20
222.88888888888891
 10
82.888888888888886
 20
222.88888888888891
 10
83.666666666666671
 20
222.88888888888891
 10
83.666666666666671
 20
222.88888888888891
 10
82.777777777777771
 20
227.44444444444446
  0
LWPOLYLINE
  5
FB
  8
P
 62
0
370
-1
  6
CONTINUOUS
100
AcDbEntity
100
AcDbPolyline
 90
3
 70
0
 10
82.777777777777771
 20
227.44444444444446
 10
83.666666666666671
 20
222.88888888888891
 10
82.777777777777771
 20
227.44444444444446
  0
LWPOLYLINE
  5
FC
  8
P
 62
0
370
-1
  6
CONTINUOUS
100
AcDbEntity
100
AcDbPolyline
 90
19
 70
0
 10
77.555555555555557
 20
231.88888888888891
 10
77.555555555555557
 20
232.33333333333331
 10
77.333333333333329
 20
232.66666666666669
 10
77.0
 20
232.88888888888891
 10
76.555555555555557
 20
232.88888888888891
 10
76.0
 20
232.88888888888891
 10
75.555555555555557
 20
232.88888888888891
 10
75.222222222222229
 20
232.66666666666669
 10
75.0
 20
232.33333333333331
 10
75.0
 20
231.88888888888891
 10
75.0
 20
231.55555555555554
 10
75.222222222222229
 20
231.22222222222223
 10
75.555555555555557
 20
231.0
 10
76.0
 20
231.0
 10
76.555555555555557
 20
231.0
 10
77.0
 20
231.0
 10
77.333333333333329
 20
231.22222222222223
 10
77.555555555555557
 20
231.55555555555554
 10
77.555555555555557
 20
231.88888888888891
  0
LWPOLYLINE
  5
FD
  8
P
 62
0
370
-1
  6
CONTINUOUS
100
AcDbEntity
100
AcDbPolyline
 90
52
 70
0
 10
78.222222222222229
 20
231.88888888888891
 10
78.222222222222229
 20
231.66666666666669
 10
78.111111111111114
 20
231.33333333333331
 10
78.0
 20
231.0
 10
77.777777777777771
 20
230.77777777777777
 10
77.555555555555557
 20
230.55555555555554
 10
77.222222222222229
 20
230.44444444444446
 10
76.888888888888886
 20
230.33333333333331
 10
76.555555555555557
 20
230.33333333333331
 10
76.0
 20
230.33333333333331
 10
75.555555555555557
 20
230.33333333333331
 10
75.222222222222229
 20
230.44444444444446
 10
74.888888888888886
 20
230.66666666666669
 10
74.666666666666671
 20
231.0
 10
74.333333333333329
 20
230.66666666666669
 10
74.0
 20
230.44444444444446
 10
73.666666666666671
 20
230.33333333333331
 10
73.333333333333329
 20
230.33333333333331
 10
73.0
 20
230.33333333333331
 10
72.666666666666671
 20
230.44444444444446
 10
72.444444444444443
 20
230.55555555555554
 10
72.111111111111114
 20
230.77777777777777
 10
71.888888888888886
 20
231.0
 10
71.777777777777771
 20
231.33333333333331
 10
71.666666666666671
 20
231.55555555555554
 10
71.666666666666671
 20
231.88888888888891
 10
71.666666666666671
 20
232.22222222222223
 10
71.777777777777771
 20
232.55555555555554
 10
71.888888888888886
 20
232.88888888888891
 10
72.111111111111114
 20
233.11111111111109
 10
72.444444444444443
 20
233.33333333333331
 10
72.666666666666671
 20
233.44444444444446
 10
73.0
 20
233.55555555555554
 10
73.333333333333329
 20
233.55555555555554
 10
73.666666666666671
 20
233.55555555555554
 10
74.0
 20
233.44444444444446
 10
74.333333333333329
 20
233.22222222222223
 10
74.666666666666671
 20
232.88888888888891
 10
75.0
 20
233.33333333333331
 10
75.555555555555557
 20
233.55555555555554
 10
75.666666666666671
 20
233.55555555555554
 10
75.888888888888886
 20
233.55555555555554
 10
76.222222222222229
 20
233.55555555555554
 10
76.555555555555557
 20
233.55555555555554
 10
76.888888888888886
 20
233.55555555555554
 10
77.222222222222229
 20
233.44444444444446
 10
77.555555555555557
 20
233.33333333333331
 10
77.777777777777771
 20
233.11111111111109
 10
78.0
 20
232.88888888888891
 10
78.111111111111114
 20
232.55555555555554
 10
78.222222222222229
 20
232.22222222222223
 10
78.222222222222229
 20
231.88888888888891
  0
LWPOLYLINE
  5
FE
  8
P
 62
0
370
-1
  6
CONTINUOUS
100
AcDbEntity
100
AcDbPolyline
 90
17
 70
0
 10
74.333333333333329
 20
231.88888888888891
 10
74.222222222222229
 20
232.33333333333331
 10
74.0
 20
232.66666666666669
 10
73.666666666666671
 20
232.88888888888891
 10
73.333333333333329
 20
232.88888888888891
 10
72.888888888888886
 20
232.88888888888891
 10
72.555555555555557
 20
232.66666666666669
 10
72.444444444444443
 20
232.33333333333331
 10
72.333333333333329
 20
231.88888888888891
 10
72.444444444444443
 20
231.55555555555554
 10
72.555555555555557
 20
231.22222222222223
 10
72.888888888888886
 20
231.0
 10
73.333333333333329
 20
231.0
 10
73.666666666666671
 20
231.0
 10
74.0
 20
231.22222222222223
 10
74.222222222222229
 20
231.55555555555554
 10
74.333333333333329
 20
231.88888888888891
  0
LWPOLYLINE
  5
FF
  8
P
 62
0
370
-1
  6
CONTINUOUS
100
AcDbEntity
100
AcDbPolyline
 90
19
 70
0
 10
77.555555555555557
 20
228.66666666666669
 10
77.666666666666671
 20
229.0
 10
77.888888888888886
 20
229.0
 10
78.0
 20
229.0
 10
78.333333333333329
 20
229.0
 10
78.777777777777771
 20
228.88888888888891
 10
79.0
 20
228.77777777777777
 10
79.333333333333329
 20
228.66666666666669
 10
79.555555555555557
 20
228.55555555555554
 10
79.555555555555557
 20
228.33333333333331
 10
79.444444444444443
 20
228.11111111111109
 10
79.222222222222229
 20
228.0
 10
79.111111111111114
 20
228.11111111111109
 10
78.777777777777771
 20
228.11111111111109
 10
78.333333333333329
 20
228.22222222222223
 10
78.111111111111114
 20
228.33333333333331
 10
77.888888888888886
 20
228.44444444444446
 10
77.666666666666671
 20
228.55555555555554
 10
77.555555555555557
 20
228.66666666666669
  0
LWPOLYLINE
  5
100
  8
P
 62
0
370
-1
  6
CONTINUOUS
100
AcDbEntity
100
AcDbPolyline
 90
37
 70
0
 10
75.0
 20
226.55555555555554
 10
75.555555555555557
 20
226.55555555555554
 10
76.111111111111114
 20
226.44444444444446
 10
76.555555555555557
 20
226.33333333333331
 10
77.0
 20
226.22222222222223
 10
77.333333333333329
 20
226.11111111111109
 10
77.555555555555557
 20
226.0
 10
77.888888888888886
 20
225.66666666666669
 10
78.222222222222229
 20
225.33333333333331
 10
78.222222222222229
 20
224.88888888888891
 10
78.222222222222229
 20
224.44444444444446
 10
78.0
 20
224.11111111111109
 10
77.555555555555557
 20
223.77777777777777
 10
77.333333333333329
 20
223.66666666666669
 10
77.0
 20
223.55555555555554
 10
76.555555555555557
 20
223.44444444444446
 10
76.111111111111114
 20
223.33333333333331
 10
75.555555555555557
 20
223.22222222222223
 10
75.0
 20
223.22222222222223
 10
74.333333333333329
 20
223.22222222222223
 10
73.888888888888886
 20
223.33333333333331
 10
73.333333333333329
 20
223.44444444444446
 10
72.888888888888886
 20
223.55555555555554
 10
72.666666666666671
 20
223.66666666666669
 10
72.333333333333329
 20
223.77777777777777
 10
72.0
 20
224.11111111111109
 10
71.777777777777771
 20
224.44444444444446
 10
71.666666666666671
 20
224.88888888888891
 10
71.777777777777771
 20
225.33333333333331
 10
72.0
 20
225.66666666666669
 10
72.333333333333329
 20
226.0
 10
72.666666666666671
 20
226.11111111111109
 10
72.888888888888886
 20
226.22222222222223
 10
73.333333333333329
 20
226.33333333333331
 10
73.888888888888886
 20
226.44444444444446
 10
74.333333333333329
 20
226.55555555555554
 10
75.0
 20
226.55555555555554
  0
ENDSEC
  0
SECTION
  2
OBJECTS
  0
DICTIONARY
  5
C
100
AcDbDictionary
280
0
281
1
  3
ACAD_GROUP
350
D
  3
ACAD_LAYOUT
350
1A
  3
ACAD_MLINESTYLE
350
17
  3
ACAD_PLOTSETTINGS
350
19
  3
ACAD_PLOTSTYLENAME
350
E
  3
AcDbVariableDictionary
350
101
  0
DICTIONARY
  5
D
100
AcDbDictionary
280
0
281
1
  0
ACDBDICTIONARYWDFLT
  5
E
100
AcDbDictionary
281
1
  3
Normal
350
F
100
AcDbDictionaryWithDefault
340
F
  0
ACDBPLACEHOLDER
  5
F
  0
DICTIONARY
  5
17
100
AcDbDictionary
280
0
281
1
  3
Standard
350
18
  0
MLINESTYLE
  5
18
100
AcDbMlineStyle
  2
STANDARD
 70
0
  3

 62
256
 51
90.0
 52
90.0
 71
2
 49
0.5
 62
256
  6
BYLAYER
 49
-0.5
 62
256
  6
BYLAYER
  0
DICTIONARY
  5
19
100
AcDbDictionary
280
0
281
1
  0
DICTIONARY
  5
1A
100
AcDbDictionary
281
1
  3
Layout1
350
1E
  3
Layout2
350
26
  3
Model
350
22
  0
LAYOUT
  5
1E
100
AcDbPlotSettings
  1

  2
C:\Program Files\AutoCAD 2002\plotters\DWF ePlot (optimized for plotting).pc3
  4

  6

 40
0.0
 41
0.0
 42
0.0
 43
0.0
 44
0.0
 45
0.0
 46
0.0
 47
0.0
 48
0.0
 49
0.0
140
0.0
141
0.0
142
1.0
143
1.0
 70
688
 72
0
 73
0
 74
5
  7

 75
16
147
1.0
148
0.0
149
0.0
100
AcDbLayout
  1
Layout1
 70
1
 71
1
 10
0.0
 20
0.0
 11
420.0
 21
297.0
 12
0.0
 22
0.0
 32
0.0
 14
100000000000000000000.0
 24
100000000000000000000.0
 34
100000000000000000000.0
 15
-100000000000000000000.0
 25
-100000000000000000000.0
 35
-100000000000000000000.0
146
0.0
 13
0.0
 23
0.0
 33
0.0
 16
1.0
 26
0.0
 36
0.0
 17
0.0
 27
1.0
 37
0.0
 76
0
330
1B
  0
LAYOUT
  5
22
100
AcDbPlotSettings
  1

  2
C:\Program Files\AutoCAD 2002\plotters\DWF ePlot (optimized for plotting).pc3
  4

  6

 40
0.0
 41
0.0
 42
0.0
 43
0.0
 44
0.0
 45
0.0
 46
0.0
 47
0.0
 48
0.0
 49
0.0
140
0.0
141
0.0
142
1.0
143
1.0
 70
1712
 72
0
 73
0
 74
0
  7

 75
0
147
1.0
148
0.0
149
0.0
100
AcDbLayout
  1
Model
 70
1
 71
0
 10
0.0
 20
0.0
 11
12.0
 21
9.0
 12
0.0
 22
0.0
 32
0.0
 14
0.0
 24
0.0
 34
0.0
 15
0.0
 25
0.0
 35
0.0
146
0.0
 13
0.0
 23
0.0
 33
0.0
 16
1.0
 26
0.0
 36
0.0
 17
0.0
 27
1.0
 37
0.0
 76
0
330
1F
  0
LAYOUT
  5
26
100
AcDbPlotSettings
  1

  2
C:\Program Files\AutoCAD 2002\plotters\DWF ePlot (optimized for plotting).pc3
  4

  6

 40
0.0
 41
0.0
 42
0.0
 43
0.0
 44
0.0
 45
0.0
 46
0.0
 47
0.0
 48
0.0
 49
0.0
140
0.0
141
0.0
142
1.0
143
1.0
 70
688
 72
0
 73
0
 74
5
  7

 75
16
147
1.0
148
0.0
149
0.0
100
AcDbLayout
  1
Layout2
 70
1
 71
2
 10
0.0
 20
0.0
 11
12.0
 21
9.0
 12
0.0
 22
0.0
 32
0.0
 14
0.0
 24
0.0
 34
0.0
 15
0.0
 25
0.0
 35
0.0
146
0.0
 13
0.0
 23
0.0
 33
0.0
 16
1.0
 26
0.0
 36
0.0
 17
0.0
 27
1.0
 37
0.0
 76
0
330
23
  0
DICTIONARY
  5
101
100
AcDbDictionary
281
1
  3
DIMASSOC
350
103
  3
HIDETEXT
350
102
  0
DICTIONARYVAR
  5
102
100
DictionaryVariables
280
0
  1
2
  0
DICTIONARYVAR
  5
103
100
DictionaryVariables
280
0
  1
1
  0
ENDSEC
  0
EOF
