ISO-10303-21;
HEADER;
/* Generated by software containing ST-Developer
 * from STEP Tools, Inc. (www.steptools.com) 
 */

FILE_DESCRIPTION(
/* description */ ('Alibre Inc.'),
/* implementation_level */ '2;1');

FILE_NAME(
/* name */ 'export-26278E8E-9A7C-450E-8396-632DC73E4537',
/* time_stamp */ '2020-02-11T10:51:34+01:00',
/* author */ (''),
/* organization */ (''),
/* preprocessor_version */ 'ST-DEVELOPER v17',
/* originating_system */ 'Alibre',
/* authorisation */ '');

FILE_SCHEMA (('CONFIG_CONTROL_DESIGN'));
ENDSEC;

DATA;
#10=MECHANICAL_CONTEXT('detailed design',#18,'mechanical');
#11=PRODUCT_RELATED_PRODUCT_CATEGORY('detail','',(#98));
#12=CC_DESIGN_SECURITY_CLASSIFICATION(#14,(#97));
#13=SECURITY_CLASSIFICATION_LEVEL('unclassified');
#14=SECURITY_CLASSIFICATION('name','Security for version',#13);
#15=SHAPE_DEFINITION_REPRESENTATION(#16,#497);
#16=PRODUCT_DEFINITION_SHAPE('','DefinitionDesc',#96);
#17=APPLICATION_PROTOCOL_DEFINITION('AP definition status',
'config_control_design',1994,#18);
#18=APPLICATION_CONTEXT(
'control the configuration of three dimensional design');
#19=DESIGN_CONTEXT('detailed design',#18,'design');
#20=PERSON_AND_ORGANIZATION_ROLE('creator');
#21=PERSON_AND_ORGANIZATION_ROLE('classification_officer');
#22=PERSON_AND_ORGANIZATION_ROLE('creator');
#23=PERSON_AND_ORGANIZATION_ROLE('design_supplier');
#24=PERSON_AND_ORGANIZATION_ROLE('design_owner');
#25=CC_DESIGN_PERSON_AND_ORGANIZATION_ASSIGNMENT(#57,#20,(#96));
#26=CC_DESIGN_PERSON_AND_ORGANIZATION_ASSIGNMENT(#60,#21,(#14));
#27=CC_DESIGN_PERSON_AND_ORGANIZATION_ASSIGNMENT(#61,#22,(#97));
#28=CC_DESIGN_PERSON_AND_ORGANIZATION_ASSIGNMENT(#62,#23,(#97));
#29=CC_DESIGN_PERSON_AND_ORGANIZATION_ASSIGNMENT(#63,#24,(#98));
#30=DATE_TIME_ROLE('creation_date');
#31=DATE_TIME_ROLE('classification_date');
#32=CC_DESIGN_DATE_AND_TIME_ASSIGNMENT(#86,#30,(#96));
#33=CC_DESIGN_DATE_AND_TIME_ASSIGNMENT(#89,#31,(#14));
#34=CC_DESIGN_APPROVAL(#93,(#96));
#35=CC_DESIGN_APPROVAL(#94,(#97));
#36=CC_DESIGN_APPROVAL(#95,(#14));
#37=APPROVAL_PERSON_ORGANIZATION(#56,#93,#64);
#38=APPROVAL_PERSON_ORGANIZATION(#58,#94,#65);
#39=APPROVAL_PERSON_ORGANIZATION(#59,#95,#66);
#40=ORGANIZATION('DEFINITION_APPROVEDBY_ORG_ID',
'DEFINITION_APPROVEDBY_ORG_NAME','DEFINITION_APPROVEDBY_ORG_DESCR');
#41=ORGANIZATION('DEF_CREATOR_ORG_ID','DEF_CREATOR_ORG_NAME',
'DEF_CREATOR_ORG_DESCR');
#42=ORGANIZATION('APPROVEDBY_ORG_ID','APPROVEDBY_ORG_NAME',
'APPROVEDBY_ORG_DESCR');
#43=ORGANIZATION('SECURITY_APPROVEDBY_ORG_ID',
'SECURITY_APPROVEDBY_ORG_NAME','SECURITY_APPROVEDBY_ORG_DESCR');
#44=ORGANIZATION('CLASSOFFICER_ORG_ID','CLASSOFFICER_ORG_NAME',
'CLASSOFFICER_ORG_DESCR');
#45=ORGANIZATION('CREATOR_ORG_ID','CREATOR_ORG_NAME',
'CREATOR_ORG_DESCR');
#46=ORGANIZATION('SUPPLIER_ORG_ID','SUPPLIER_ORG_NAME',
'SUPPLIER_ORG_DESCR');
#47=ORGANIZATION('OWNER_ORG_ID','OWNER_ORG_NAME','OWNER_ORG_DESCR');
#48=PERSON('DEFINITION_approverID','DEFINITION_APPROVEDBY_LASTNAME',
'DEFINITION_APPROVEDBY_FIRSTNAME',$,$,$);
#49=PERSON('DEF_createrID','DEF_CREATOR_LASTNAME',
'DEF_CREATOR_FIRSTNAME',$,$,$);
#50=PERSON('approverID','APPROVEDBY_LASTNAME','APPROVEDBY_FIRSTNAME',$,
$,$);
#51=PERSON('SECURITY_approverID','SECURITY_LASTNAME',
'SECURITY_APPROVEDBY_FIRSTNAME',$,$,$);
#52=PERSON('classifierID','CLASSOFFICER_LASTNAME',
'CLASSOFFICER_FIRSTNAME',$,$,$);
#53=PERSON('createrID','CREATOR_LASTNAME','CREATOR_FIRSTNAME',$,$,$);
#54=PERSON('supplierID','SUPPLIER_LASTNAME','SUPPLIER_FIRSTNAME',$,$,$);
#55=PERSON('ownerID','OWNER_LASTNAME','OWNER_FIRSTNAME',$,$,$);
#56=PERSON_AND_ORGANIZATION(#48,#40);
#57=PERSON_AND_ORGANIZATION(#49,#41);
#58=PERSON_AND_ORGANIZATION(#50,#42);
#59=PERSON_AND_ORGANIZATION(#51,#43);
#60=PERSON_AND_ORGANIZATION(#52,#44);
#61=PERSON_AND_ORGANIZATION(#53,#45);
#62=PERSON_AND_ORGANIZATION(#54,#46);
#63=PERSON_AND_ORGANIZATION(#55,#47);
#64=APPROVAL_ROLE('definition_approval');
#65=APPROVAL_ROLE('version_approval');
#66=APPROVAL_ROLE('security_approval');
#67=APPROVAL_DATE_TIME(#85,#93);
#68=APPROVAL_DATE_TIME(#87,#94);
#69=APPROVAL_DATE_TIME(#88,#95);
#70=COORDINATED_UNIVERSAL_TIME_OFFSET(1,0,.AHEAD.);
#71=COORDINATED_UNIVERSAL_TIME_OFFSET(1,0,.AHEAD.);
#72=COORDINATED_UNIVERSAL_TIME_OFFSET(1,0,.AHEAD.);
#73=COORDINATED_UNIVERSAL_TIME_OFFSET(1,0,.AHEAD.);
#74=COORDINATED_UNIVERSAL_TIME_OFFSET(1,0,.AHEAD.);
#75=LOCAL_TIME(13,27,1.,#70);
#76=LOCAL_TIME(13,27,1.,#71);
#77=LOCAL_TIME(13,27,1.,#72);
#78=LOCAL_TIME(13,27,1.,#73);
#79=LOCAL_TIME(13,27,1.,#74);
#80=CALENDAR_DATE(2016,28,11);
#81=CALENDAR_DATE(2016,28,11);
#82=CALENDAR_DATE(2016,28,11);
#83=CALENDAR_DATE(2016,28,11);
#84=CALENDAR_DATE(2016,28,11);
#85=DATE_AND_TIME(#80,#75);
#86=DATE_AND_TIME(#81,#76);
#87=DATE_AND_TIME(#82,#77);
#88=DATE_AND_TIME(#83,#78);
#89=DATE_AND_TIME(#84,#79);
#90=APPROVAL_STATUS('not_yet_approved');
#91=APPROVAL_STATUS('not_yet_approved');
#92=APPROVAL_STATUS('not_yet_approved');
#93=APPROVAL(#90,'defintion approval');
#94=APPROVAL(#91,'version approval');
#95=APPROVAL(#92,'security approval');
#96=PRODUCT_DEFINITION('DefinitionID','DefinitionDesc',#97,#19);
#97=PRODUCT_DEFINITION_FORMATION_WITH_SPECIFIED_SOURCE(
'PRODUCT_VERSION_ID','PRODUCT_VERSION_DESCR',#98,.NOT_KNOWN.);
#98=PRODUCT('ID_1','Vodiace p\X\FAzdro 9','',(#10));
#99=(
LENGTH_UNIT()
NAMED_UNIT(*)
SI_UNIT(.CENTI.,.METRE.)
);
#100=(
NAMED_UNIT(*)
PLANE_ANGLE_UNIT()
SI_UNIT($,.RADIAN.)
);
#101=(
NAMED_UNIT(*)
SI_UNIT($,.STERADIAN.)
SOLID_ANGLE_UNIT()
);
#102=UNCERTAINTY_MEASURE_WITH_UNIT(LENGTH_MEASURE(1.E-6),#99,
'DISTANCE_ACCURACY_VALUE',
'Maximum model space distance between geometric entities at asserted c
onnectivities');
#103=(
GEOMETRIC_REPRESENTATION_CONTEXT(3)
GLOBAL_UNCERTAINTY_ASSIGNED_CONTEXT((#102))
GLOBAL_UNIT_ASSIGNED_CONTEXT((#101,#100,#99))
REPRESENTATION_CONTEXT('ID1','3D')
);
#104=PLANE('',#338);
#105=PLANE('',#347);
#106=PLANE('',#350);
#107=PLANE('',#353);
#108=PLANE('',#359);
#109=CONICAL_SURFACE('',#325,0.725,0.502843210927861);
#110=CONICAL_SURFACE('',#329,0.65,0.436332312998582);
#111=CONICAL_SURFACE('',#333,1.55,0.785398163397448);
#112=CONICAL_SURFACE('',#335,1.8925,0.785398163397448);
#113=CONICAL_SURFACE('',#342,2.45,0.785398163397448);
#114=CONICAL_SURFACE('',#348,2.45,0.785398163397448);
#115=CYLINDRICAL_SURFACE('',#323,0.45);
#116=CYLINDRICAL_SURFACE('',#340,1.9925);
#117=CYLINDRICAL_SURFACE('',#345,2.55);
#118=CYLINDRICAL_SURFACE('',#355,1.95);
#119=CYLINDRICAL_SURFACE('',#357,1.9925);
#120=VERTEX_POINT('',#433);
#121=VERTEX_POINT('',#435);
#122=VERTEX_POINT('',#438);
#123=VERTEX_POINT('',#441);
#124=VERTEX_POINT('',#444);
#125=VERTEX_POINT('',#447);
#126=VERTEX_POINT('',#450);
#127=VERTEX_POINT('',#453);
#128=VERTEX_POINT('',#456);
#129=VERTEX_POINT('',#458);
#130=VERTEX_POINT('',#461);
#131=VERTEX_POINT('',#464);
#132=VERTEX_POINT('',#467);
#133=VERTEX_POINT('',#469);
#134=VERTEX_POINT('',#472);
#135=VERTEX_POINT('',#476);
#136=VERTEX_POINT('',#479);
#137=VERTEX_POINT('',#483);
#138=VERTEX_POINT('',#486);
#139=VERTEX_POINT('',#489);
#140=CIRCLE('',#321,0.573784091323353);
#141=CIRCLE('',#322,0.45);
#142=CIRCLE('',#324,0.45);
#143=CIRCLE('',#326,0.971505531237469);
#144=CIRCLE('',#328,0.54369221296335);
#145=CIRCLE('',#330,0.700961995830006);
#146=CIRCLE('',#332,1.09936400753021);
#147=CIRCLE('',#334,2.25);
#148=CIRCLE('',#336,1.8925);
#149=CIRCLE('',#337,1.9925);
#150=CIRCLE('',#339,1.05912712210513);
#151=CIRCLE('',#341,1.9925);
#152=CIRCLE('',#343,2.45);
#153=CIRCLE('',#344,2.55);
#154=CIRCLE('',#346,2.55);
#155=CIRCLE('',#349,2.45);
#156=CIRCLE('',#351,1.9925);
#157=CIRCLE('',#354,1.95);
#158=CIRCLE('',#356,1.95);
#159=CIRCLE('',#358,1.9925);
#160=EDGE_CURVE('',#120,#120,#140,.T.);
#161=EDGE_CURVE('',#121,#121,#141,.T.);
#162=EDGE_CURVE('',#122,#122,#142,.T.);
#163=EDGE_CURVE('',#123,#123,#143,.T.);
#164=EDGE_CURVE('',#124,#124,#144,.T.);
#165=EDGE_CURVE('',#125,#125,#145,.T.);
#166=EDGE_CURVE('',#126,#126,#146,.T.);
#167=EDGE_CURVE('',#127,#127,#147,.T.);
#168=EDGE_CURVE('',#128,#128,#148,.T.);
#169=EDGE_CURVE('',#129,#129,#149,.T.);
#170=EDGE_CURVE('',#130,#130,#150,.T.);
#171=EDGE_CURVE('',#131,#131,#151,.T.);
#172=EDGE_CURVE('',#132,#132,#152,.T.);
#173=EDGE_CURVE('',#133,#133,#153,.T.);
#174=EDGE_CURVE('',#134,#134,#154,.T.);
#175=EDGE_CURVE('',#135,#135,#155,.T.);
#176=EDGE_CURVE('',#136,#136,#156,.T.);
#177=EDGE_CURVE('',#137,#137,#157,.T.);
#178=EDGE_CURVE('',#138,#138,#158,.T.);
#179=EDGE_CURVE('',#139,#139,#159,.T.);
#180=ORIENTED_EDGE('',*,*,#160,.T.);
#181=ORIENTED_EDGE('',*,*,#161,.T.);
#182=ORIENTED_EDGE('',*,*,#162,.F.);
#183=ORIENTED_EDGE('',*,*,#161,.F.);
#184=ORIENTED_EDGE('',*,*,#163,.F.);
#185=ORIENTED_EDGE('',*,*,#160,.F.);
#186=ORIENTED_EDGE('',*,*,#162,.T.);
#187=ORIENTED_EDGE('',*,*,#164,.T.);
#188=ORIENTED_EDGE('',*,*,#165,.F.);
#189=ORIENTED_EDGE('',*,*,#164,.F.);
#190=ORIENTED_EDGE('',*,*,#165,.T.);
#191=ORIENTED_EDGE('',*,*,#166,.T.);
#192=ORIENTED_EDGE('',*,*,#167,.F.);
#193=ORIENTED_EDGE('',*,*,#166,.F.);
#194=ORIENTED_EDGE('',*,*,#168,.T.);
#195=ORIENTED_EDGE('',*,*,#169,.T.);
#196=ORIENTED_EDGE('',*,*,#170,.F.);
#197=ORIENTED_EDGE('',*,*,#168,.F.);
#198=ORIENTED_EDGE('',*,*,#171,.T.);
#199=ORIENTED_EDGE('',*,*,#169,.F.);
#200=ORIENTED_EDGE('',*,*,#172,.T.);
#201=ORIENTED_EDGE('',*,*,#173,.T.);
#202=ORIENTED_EDGE('',*,*,#174,.F.);
#203=ORIENTED_EDGE('',*,*,#173,.F.);
#204=ORIENTED_EDGE('',*,*,#167,.T.);
#205=ORIENTED_EDGE('',*,*,#172,.F.);
#206=ORIENTED_EDGE('',*,*,#175,.T.);
#207=ORIENTED_EDGE('',*,*,#174,.T.);
#208=ORIENTED_EDGE('',*,*,#176,.T.);
#209=ORIENTED_EDGE('',*,*,#175,.F.);
#210=ORIENTED_EDGE('',*,*,#163,.T.);
#211=ORIENTED_EDGE('',*,*,#170,.T.);
#212=ORIENTED_EDGE('',*,*,#171,.F.);
#213=ORIENTED_EDGE('',*,*,#177,.F.);
#214=ORIENTED_EDGE('',*,*,#177,.T.);
#215=ORIENTED_EDGE('',*,*,#178,.F.);
#216=ORIENTED_EDGE('',*,*,#179,.T.);
#217=ORIENTED_EDGE('',*,*,#176,.F.);
#218=ORIENTED_EDGE('',*,*,#178,.T.);
#219=ORIENTED_EDGE('',*,*,#179,.F.);
#220=EDGE_LOOP('',(#180));
#221=EDGE_LOOP('',(#181));
#222=EDGE_LOOP('',(#182));
#223=EDGE_LOOP('',(#183));
#224=EDGE_LOOP('',(#184));
#225=EDGE_LOOP('',(#185));
#226=EDGE_LOOP('',(#186));
#227=EDGE_LOOP('',(#187));
#228=EDGE_LOOP('',(#188));
#229=EDGE_LOOP('',(#189));
#230=EDGE_LOOP('',(#190));
#231=EDGE_LOOP('',(#191));
#232=EDGE_LOOP('',(#192));
#233=EDGE_LOOP('',(#193));
#234=EDGE_LOOP('',(#194));
#235=EDGE_LOOP('',(#195));
#236=EDGE_LOOP('',(#196));
#237=EDGE_LOOP('',(#197));
#238=EDGE_LOOP('',(#198));
#239=EDGE_LOOP('',(#199));
#240=EDGE_LOOP('',(#200));
#241=EDGE_LOOP('',(#201));
#242=EDGE_LOOP('',(#202));
#243=EDGE_LOOP('',(#203));
#244=EDGE_LOOP('',(#204));
#245=EDGE_LOOP('',(#205));
#246=EDGE_LOOP('',(#206));
#247=EDGE_LOOP('',(#207));
#248=EDGE_LOOP('',(#208));
#249=EDGE_LOOP('',(#209));
#250=EDGE_LOOP('',(#210));
#251=EDGE_LOOP('',(#211));
#252=EDGE_LOOP('',(#212));
#253=EDGE_LOOP('',(#213));
#254=EDGE_LOOP('',(#214));
#255=EDGE_LOOP('',(#215));
#256=EDGE_LOOP('',(#216));
#257=EDGE_LOOP('',(#217));
#258=EDGE_LOOP('',(#218));
#259=EDGE_LOOP('',(#219));
#260=FACE_BOUND('',#220,.T.);
#261=FACE_BOUND('',#221,.T.);
#262=FACE_BOUND('',#222,.T.);
#263=FACE_BOUND('',#223,.T.);
#264=FACE_BOUND('',#224,.T.);
#265=FACE_BOUND('',#225,.T.);
#266=FACE_BOUND('',#226,.T.);
#267=FACE_BOUND('',#227,.T.);
#268=FACE_BOUND('',#228,.T.);
#269=FACE_BOUND('',#229,.T.);
#270=FACE_BOUND('',#230,.T.);
#271=FACE_BOUND('',#231,.T.);
#272=FACE_BOUND('',#232,.T.);
#273=FACE_BOUND('',#233,.T.);
#274=FACE_BOUND('',#234,.T.);
#275=FACE_BOUND('',#235,.T.);
#276=FACE_BOUND('',#236,.T.);
#277=FACE_BOUND('',#237,.T.);
#278=FACE_BOUND('',#238,.T.);
#279=FACE_BOUND('',#239,.T.);
#280=FACE_BOUND('',#240,.T.);
#281=FACE_BOUND('',#241,.T.);
#282=FACE_BOUND('',#242,.T.);
#283=FACE_BOUND('',#243,.T.);
#284=FACE_BOUND('',#244,.T.);
#285=FACE_BOUND('',#245,.T.);
#286=FACE_BOUND('',#246,.T.);
#287=FACE_BOUND('',#247,.T.);
#288=FACE_BOUND('',#248,.T.);
#289=FACE_BOUND('',#249,.T.);
#290=FACE_BOUND('',#250,.T.);
#291=FACE_BOUND('',#251,.T.);
#292=FACE_BOUND('',#252,.T.);
#293=FACE_BOUND('',#253,.T.);
#294=FACE_BOUND('',#254,.T.);
#295=FACE_BOUND('',#255,.T.);
#296=FACE_BOUND('',#256,.T.);
#297=FACE_BOUND('',#257,.T.);
#298=FACE_BOUND('',#258,.T.);
#299=FACE_BOUND('',#259,.T.);
#300=ADVANCED_FACE('',(#260,#261),#491,.T.);
#301=ADVANCED_FACE('',(#262,#263),#115,.F.);
#302=ADVANCED_FACE('',(#264,#265),#109,.F.);
#303=ADVANCED_FACE('',(#266,#267),#492,.T.);
#304=ADVANCED_FACE('',(#268,#269),#110,.F.);
#305=ADVANCED_FACE('',(#270,#271),#493,.T.);
#306=ADVANCED_FACE('',(#272,#273),#111,.F.);
#307=ADVANCED_FACE('',(#274,#275),#112,.T.);
#308=ADVANCED_FACE('',(#276,#277),#104,.T.);
#309=ADVANCED_FACE('',(#278,#279),#116,.T.);
#310=ADVANCED_FACE('',(#280,#281),#113,.T.);
#311=ADVANCED_FACE('',(#282,#283),#117,.T.);
#312=ADVANCED_FACE('',(#284,#285),#105,.F.);
#313=ADVANCED_FACE('',(#286,#287),#114,.T.);
#314=ADVANCED_FACE('',(#288,#289),#106,.T.);
#315=ADVANCED_FACE('',(#290,#291),#494,.T.);
#316=ADVANCED_FACE('',(#292,#293),#107,.F.);
#317=ADVANCED_FACE('',(#294,#295),#118,.T.);
#318=ADVANCED_FACE('',(#296,#297),#119,.T.);
#319=ADVANCED_FACE('',(#298,#299),#108,.T.);
#320=AXIS2_PLACEMENT_3D('',#431,#360,$);
#321=AXIS2_PLACEMENT_3D('',#432,#361,#362);
#322=AXIS2_PLACEMENT_3D('',#434,#363,#364);
#323=AXIS2_PLACEMENT_3D('',#436,#365,#366);
#324=AXIS2_PLACEMENT_3D('',#437,#367,#368);
#325=AXIS2_PLACEMENT_3D('',#439,#369,#370);
#326=AXIS2_PLACEMENT_3D('',#440,#371,#372);
#327=AXIS2_PLACEMENT_3D('',#442,#373,$);
#328=AXIS2_PLACEMENT_3D('',#443,#374,#375);
#329=AXIS2_PLACEMENT_3D('',#445,#376,#377);
#330=AXIS2_PLACEMENT_3D('',#446,#378,#379);
#331=AXIS2_PLACEMENT_3D('',#448,#380,$);
#332=AXIS2_PLACEMENT_3D('',#449,#381,#382);
#333=AXIS2_PLACEMENT_3D('',#451,#383,#384);
#334=AXIS2_PLACEMENT_3D('',#452,#385,#386);
#335=AXIS2_PLACEMENT_3D('',#454,#387,#388);
#336=AXIS2_PLACEMENT_3D('',#455,#389,#390);
#337=AXIS2_PLACEMENT_3D('',#457,#391,#392);
#338=AXIS2_PLACEMENT_3D('',#459,#393,$);
#339=AXIS2_PLACEMENT_3D('',#460,#394,#395);
#340=AXIS2_PLACEMENT_3D('',#462,#396,#397);
#341=AXIS2_PLACEMENT_3D('',#463,#398,#399);
#342=AXIS2_PLACEMENT_3D('',#465,#400,#401);
#343=AXIS2_PLACEMENT_3D('',#466,#402,#403);
#344=AXIS2_PLACEMENT_3D('',#468,#404,#405);
#345=AXIS2_PLACEMENT_3D('',#470,#406,#407);
#346=AXIS2_PLACEMENT_3D('',#471,#408,#409);
#347=AXIS2_PLACEMENT_3D('',#473,#410,$);
#348=AXIS2_PLACEMENT_3D('',#474,#411,#412);
#349=AXIS2_PLACEMENT_3D('',#475,#413,#414);
#350=AXIS2_PLACEMENT_3D('',#477,#415,$);
#351=AXIS2_PLACEMENT_3D('',#478,#416,#417);
#352=AXIS2_PLACEMENT_3D('',#480,#418,$);
#353=AXIS2_PLACEMENT_3D('',#481,#419,$);
#354=AXIS2_PLACEMENT_3D('',#482,#420,#421);
#355=AXIS2_PLACEMENT_3D('',#484,#422,#423);
#356=AXIS2_PLACEMENT_3D('',#485,#424,#425);
#357=AXIS2_PLACEMENT_3D('',#487,#426,#427);
#358=AXIS2_PLACEMENT_3D('',#488,#428,#429);
#359=AXIS2_PLACEMENT_3D('',#490,#430,$);
#360=DIRECTION('',(0.,0.,1.));
#361=DIRECTION('',(0.,0.,1.));
#362=DIRECTION('',(-7.02682850840817E-17,-0.573784091323353,0.));
#363=DIRECTION('',(0.,0.,-1.));
#364=DIRECTION('',(-5.51091059616309E-17,-0.45,0.));
#365=DIRECTION('',(0.,0.,1.));
#366=DIRECTION('',(0.,0.45,0.));
#367=DIRECTION('',(0.,0.,1.));
#368=DIRECTION('',(-5.51091059616309E-17,-0.45,0.));
#369=DIRECTION('',(0.,0.,1.));
#370=DIRECTION('',(0.,0.725,0.));
#371=DIRECTION('',(0.,0.,-1.));
#372=DIRECTION('',(1.18975113918391E-16,-0.971505531237469,0.));
#373=DIRECTION('',(0.,0.,1.));
#374=DIRECTION('',(0.,0.,-1.));
#375=DIRECTION('',(-6.65830928326907E-17,-0.54369221296335,0.));
#376=DIRECTION('',(0.,0.,-1.));
#377=DIRECTION('',(0.,0.65,0.));
#378=DIRECTION('',(0.,0.,1.));
#379=DIRECTION('',(-8.58430864517158E-17,-0.700961995830006,0.));
#380=DIRECTION('',(0.,0.,1.));
#381=DIRECTION('',(0.,0.,-1.));
#382=DIRECTION('',(-1.34633261291968E-16,-1.09936400753021,0.));
#383=DIRECTION('',(0.,0.,-1.));
#384=DIRECTION('',(0.,1.55,0.));
#385=DIRECTION('',(0.,0.,1.));
#386=DIRECTION('',(0.,2.25,0.));
#387=DIRECTION('',(0.,0.,-1.));
#388=DIRECTION('',(-1.8925,0.,0.));
#389=DIRECTION('',(0.,0.,-1.));
#390=DIRECTION('',(-1.8925,0.,0.));
#391=DIRECTION('',(0.,0.,1.));
#392=DIRECTION('',(-1.9925,0.,0.));
#393=DIRECTION('',(0.,0.,1.));
#394=DIRECTION('',(0.,0.,1.));
#395=DIRECTION('',(1.2970566399762E-16,-1.05912712210513,0.));
#396=DIRECTION('',(0.,0.,1.));
#397=DIRECTION('',(1.9925,0.,0.));
#398=DIRECTION('',(0.,0.,1.));
#399=DIRECTION('',(1.9925,0.,0.));
#400=DIRECTION('',(0.,0.,1.));
#401=DIRECTION('',(-2.45,0.,0.));
#402=DIRECTION('',(0.,0.,1.));
#403=DIRECTION('',(-2.45,0.,0.));
#404=DIRECTION('',(0.,0.,-1.));
#405=DIRECTION('',(-2.55,0.,0.));
#406=DIRECTION('',(0.,0.,1.));
#407=DIRECTION('',(2.55,0.,0.));
#408=DIRECTION('',(0.,0.,1.));
#409=DIRECTION('',(-2.55,0.,0.));
#410=DIRECTION('',(0.,0.,1.));
#411=DIRECTION('',(0.,0.,-1.));
#412=DIRECTION('',(-2.45,0.,0.));
#413=DIRECTION('',(0.,0.,-1.));
#414=DIRECTION('',(-2.45,0.,0.));
#415=DIRECTION('',(0.,0.,1.));
#416=DIRECTION('',(0.,0.,-1.));
#417=DIRECTION('',(1.9925,0.,0.));
#418=DIRECTION('',(0.,0.,-1.));
#419=DIRECTION('',(0.,0.,1.));
#420=DIRECTION('',(0.,0.,-1.));
#421=DIRECTION('',(1.95,0.,0.));
#422=DIRECTION('',(0.,0.,1.));
#423=DIRECTION('',(1.95,0.,0.));
#424=DIRECTION('',(0.,0.,-1.));
#425=DIRECTION('',(1.95,0.,0.));
#426=DIRECTION('',(0.,0.,1.));
#427=DIRECTION('',(1.9925,0.,0.));
#428=DIRECTION('',(0.,0.,-1.));
#429=DIRECTION('',(1.9925,0.,0.));
#430=DIRECTION('',(0.,0.,1.));
#431=CARTESIAN_POINT('',(0.,0.,3.24314323445212));
#432=CARTESIAN_POINT('',(0.,0.,3.72506198422428));
#433=CARTESIAN_POINT('',(0.,0.573784091323353,3.72506198422428));
#434=CARTESIAN_POINT('',(0.,0.,3.24314323445212));
#435=CARTESIAN_POINT('',(1.10218211923262E-16,0.45,3.24314323445212));
#436=CARTESIAN_POINT('',(0.,0.,2.87890138410191));
#437=CARTESIAN_POINT('',(0.,0.,2.47949743084677));
#438=CARTESIAN_POINT('',(0.,0.45,2.47949743084677));
#439=CARTESIAN_POINT('',(0.,0.,4.));
#440=CARTESIAN_POINT('',(0.,0.,4.44819187497722));
#441=CARTESIAN_POINT('',(0.,0.971505531237469,4.44819187497722));
#442=CARTESIAN_POINT('',(0.,0.,2.47949743084677));
#443=CARTESIAN_POINT('',(0.,0.,2.05687916910607));
#444=CARTESIAN_POINT('',(1.33166185665381E-16,0.54369221296335,2.05687916910607));
#445=CARTESIAN_POINT('',(0.,0.,1.82890138410191));
#446=CARTESIAN_POINT('',(0.,0.,1.71961303136149));
#447=CARTESIAN_POINT('',(0.,0.700961995830006,1.71961303136149));
#448=CARTESIAN_POINT('',(0.,0.,2.56484955484288));
#449=CARTESIAN_POINT('',(0.,0.,1.15063599246979));
#450=CARTESIAN_POINT('',(2.69266522583936E-16,1.09936400753021,1.15063599246979));
#451=CARTESIAN_POINT('',(0.,0.,0.700000000000001));
#452=CARTESIAN_POINT('',(0.,0.,0.));
#453=CARTESIAN_POINT('',(0.,2.25,0.));
#454=CARTESIAN_POINT('',(0.,0.,4.5));
#455=CARTESIAN_POINT('',(0.,0.,4.5));
#456=CARTESIAN_POINT('',(1.8925,-2.31764406738637E-16,4.5));
#457=CARTESIAN_POINT('',(0.,0.,4.4));
#458=CARTESIAN_POINT('',(1.9925,2.4401087473011E-16,4.4));
#459=CARTESIAN_POINT('',(0.,0.,4.5));
#460=CARTESIAN_POINT('',(0.,0.,4.5));
#461=CARTESIAN_POINT('',(-2.5941132799524E-16,1.05912712210513,4.5));
#462=CARTESIAN_POINT('',(0.,0.,3.4));
#463=CARTESIAN_POINT('',(0.,0.,3.4));
#464=CARTESIAN_POINT('',(1.9925,0.,3.4));
#465=CARTESIAN_POINT('',(0.,0.,0.));
#466=CARTESIAN_POINT('',(0.,0.,0.));
#467=CARTESIAN_POINT('',(2.45,3.00038465791101E-16,0.));
#468=CARTESIAN_POINT('',(0.,0.,0.1));
#469=CARTESIAN_POINT('',(2.55,-3.12284933782575E-16,0.1));
#470=CARTESIAN_POINT('',(0.,0.,0.));
#471=CARTESIAN_POINT('',(0.,0.,1.3));
#472=CARTESIAN_POINT('',(2.55,3.12284933782575E-16,1.3));
#473=CARTESIAN_POINT('',(0.,0.,0.));
#474=CARTESIAN_POINT('',(0.,0.,1.4));
#475=CARTESIAN_POINT('',(0.,0.,1.4));
#476=CARTESIAN_POINT('',(2.45,-3.00038465791101E-16,1.4));
#477=CARTESIAN_POINT('',(0.,0.,1.4));
#478=CARTESIAN_POINT('',(0.,0.,1.4));
#479=CARTESIAN_POINT('',(1.9925,0.,1.4));
#480=CARTESIAN_POINT('',(0.,0.,4.4));
#481=CARTESIAN_POINT('',(0.,0.,3.4));
#482=CARTESIAN_POINT('',(0.,0.,3.4));
#483=CARTESIAN_POINT('',(1.95,0.,3.4));
#484=CARTESIAN_POINT('',(0.,0.,2.4));
#485=CARTESIAN_POINT('',(0.,0.,2.4));
#486=CARTESIAN_POINT('',(1.95,0.,2.4));
#487=CARTESIAN_POINT('',(0.,0.,1.4));
#488=CARTESIAN_POINT('',(0.,0.,2.4));
#489=CARTESIAN_POINT('',(1.9925,0.,2.4));
#490=CARTESIAN_POINT('',(0.,0.,2.4));
#491=TOROIDAL_SURFACE('',#320,1.45,1.);
#492=TOROIDAL_SURFACE('',#327,1.45,1.);
#493=TOROIDAL_SURFACE('',#331,2.51357756990331,2.);
#494=TOROIDAL_SURFACE('',#352,1.05912712210513,0.1);
#495=CLOSED_SHELL('',(#300,#301,#302,#303,#304,#305,#306,#307,#308,#309,
#310,#311,#312,#313,#314,#315,#316,#317,#318,#319));
#496=MANIFOLD_SOLID_BREP('',#495);
#497=ADVANCED_BREP_SHAPE_REPRESENTATION('',(#496),#103);
ENDSEC;
END-ISO-10303-21;
