ISO-10303-21;
HEADER;
FILE_DESCRIPTION (( 'STEP AP203' ),
    '1' );
FILE_NAME ('010719~1.STEP',
    '2023-08-29T12:20:27',
    ( '' ),
    ( '' ),
    'SwSTEP 2.0',
    'SolidWorks 2016',
    '' );
FILE_SCHEMA (( 'CONFIG_CONTROL_DESIGN' ));
ENDSEC;

DATA;
#1 = PRODUCT_DEFINITION_FORMATION_WITH_SPECIFIED_SOURCE ( 'ANY', '', #252, .NOT_KNOWN. ) ;
#2 = DIRECTION ( 'NONE',  ( -1.000000000000000000, -7.952226867147312100E-031, -0.0000000000000000000 ) ) ;
#3 = SHAPE_DEFINITION_REPRESENTATION ( #198, #75 ) ;
#4 = ORIENTED_EDGE ( 'NONE', *, *, #258, .T. ) ;
#5 = DIRECTION ( 'NONE',  ( -1.000000000000000000, -7.952226867147312100E-031, -0.0000000000000000000 ) ) ;
#6 = CARTESIAN_POINT ( 'NONE',  ( 1015.500000000000100, 8.075486383588095200E-028, 0.0000000000000000000 ) ) ;
#7 = AXIS2_PLACEMENT_3D ( 'NONE', #207, #76, #263 ) ;
#8 = CIRCLE ( 'NONE', #90, 1.732050807568797900 ) ;
#9 = APPLICATION_PROTOCOL_DEFINITION ( 'international standard', 'config_control_design', 1994, #57 ) ;
#10 = SECURITY_CLASSIFICATION_LEVEL ( 'unclassified' ) ;
#11 = FACE_OUTER_BOUND ( 'NONE', #44, .T. ) ;
#12 = CARTESIAN_POINT ( 'NONE',  ( 0.0000000000000000000, 0.0000000000000000000, 0.0000000000000000000 ) ) ;
#13 = SECURITY_CLASSIFICATION ( '', '', #10 ) ;
#14 = VECTOR ( 'NONE', #99, 1000.000000000000000 ) ;
#15 = CONICAL_SURFACE ( 'NONE', #7, 2.500000000000000000, 0.7853981633974482800 ) ;
#16 = AXIS2_PLACEMENT_3D ( 'NONE', #195, #160, #240 ) ;
#17 = DIRECTION ( 'NONE',  ( -7.952226867147312100E-031, 1.000000000000000000, 0.0000000000000000000 ) ) ;
#18 = VERTEX_POINT ( 'NONE', #136 ) ;
#19 = CARTESIAN_POINT ( 'NONE',  ( 1.192834030072096800E-030, 9.485686821986933600E-061, 0.0000000000000000000 ) ) ;
#20 = EDGE_CURVE ( 'NONE', #132, #18, #232, .T. ) ;
#21 = PERSON_AND_ORGANIZATION ( #170, #192 ) ;
#22 = ORIENTED_EDGE ( 'NONE', *, *, #276, .F. ) ;
#23 = ADVANCED_FACE ( 'NONE', ( #68 ), #181, .F. ) ;
#24 = MANIFOLD_SOLID_BREP ( 'Rotation1', #31 ) ;
#25 = VECTOR ( 'NONE', #267, 1000.000000000000000 ) ;
#26 = DIRECTION ( 'NONE',  ( -1.000000000000000000, -7.952226867147312100E-031, 0.0000000000000000000 ) ) ;
#27 = ORIENTED_EDGE ( 'NONE', *, *, #40, .T. ) ;
#28 = DIRECTION ( 'NONE',  ( 7.952226867147312100E-031, -1.000000000000000000, 0.0000000000000000000 ) ) ;
#29 = CC_DESIGN_PERSON_AND_ORGANIZATION_ASSIGNMENT ( #105, #270, ( #13 ) ) ;
#30 = DATE_AND_TIME ( #221, #64 ) ;
#31 = CLOSED_SHELL ( 'NONE', ( #140, #154, #179, #177, #199, #96, #72, #23 ) ) ;
#32 = DIRECTION ( 'NONE',  ( -1.000000000000000000, -7.952226867147312100E-031, -0.0000000000000000000 ) ) ;
#33 = DIRECTION ( 'NONE',  ( 0.0000000000000000000, -1.000000000000000000, 0.0000000000000000000 ) ) ;
#34 = LOCAL_TIME ( 14, 20, 27.00000000000000000, #89 ) ;
#35 =( NAMED_UNIT ( * ) SI_UNIT ( $, .STERADIAN. ) SOLID_ANGLE_UNIT ( ) );
#36 = VERTEX_POINT ( 'NONE', #197 ) ;
#37 = CARTESIAN_POINT ( 'NONE',  ( 2.385668060144193600E-030, 1.897137364397386700E-060, 0.0000000000000000000 ) ) ;
#38 = AXIS2_PLACEMENT_3D ( 'NONE', #19, #156, #17 ) ;
#39 = APPROVAL_STATUS ( 'not_yet_approved' ) ;
#40 = EDGE_CURVE ( 'NONE', #132, #41, #53, .T. ) ;
#41 = VERTEX_POINT ( 'NONE', #173 ) ;
#42 = DATE_AND_TIME ( #58, #265 ) ;
#43 = LINE ( 'NONE', #261, #223 ) ;
#44 = EDGE_LOOP ( 'NONE', ( #84, #194, #229, #139 ) ) ;
#45 = DIRECTION ( 'NONE',  ( -1.000000000000000000, -7.952226867147312100E-031, -0.0000000000000000000 ) ) ;
#46 = LOCAL_TIME ( 14, 20, 27.00000000000000000, #249 ) ;
#47 = AXIS2_PLACEMENT_3D ( 'NONE', #234, #120, #115 ) ;
#48 = DATE_AND_TIME ( #152, #34 ) ;
#49 = ORIENTED_EDGE ( 'NONE', *, *, #217, .T. ) ;
#50 = CARTESIAN_POINT ( 'NONE',  ( 0.5000000000000000000, 2.500000000000000000, 3.061616997868383100E-016 ) ) ;
#51 = CARTESIAN_POINT ( 'NONE',  ( 16.49999999999997200, -1.732050807568798100, 2.121150477449716900E-016 ) ) ;
#52 = COORDINATED_UNIVERSAL_TIME_OFFSET ( 1, 0, .AHEAD. ) ;
#53 = LINE ( 'NONE', #254, #93 ) ;
#54 = EDGE_CURVE ( 'NONE', #18, #132, #141, .T. ) ;
#55 = DIRECTION ( 'NONE',  ( 0.0000000000000000000, 1.000000000000000000, 0.0000000000000000000 ) ) ;
#56 = CARTESIAN_POINT ( 'NONE',  ( 0.5000000000000000000, -2.500000000000000000, 0.0000000000000000000 ) ) ;
#57 = APPLICATION_CONTEXT ( 'configuration controlled 3d designs of mechanical parts and assemblies' ) ;
#58 = CALENDAR_DATE ( 2023, 29, 8 ) ;
#59 = DATE_TIME_ROLE ( 'creation_date' ) ;
#60 = DIRECTION ( 'NONE',  ( -1.000000000000000000, -7.952226867147312100E-031, -0.0000000000000000000 ) ) ;
#61 = EDGE_CURVE ( 'NONE', #255, #190, #250, .T. ) ;
#62 = PERSON_AND_ORGANIZATION_ROLE ( 'creator' ) ;
#63 = CC_DESIGN_DATE_AND_TIME_ASSIGNMENT ( #48, #59, ( #73 ) ) ;
#64 = LOCAL_TIME ( 14, 20, 27.00000000000000000, #271 ) ;
#65 = CONICAL_SURFACE ( 'NONE', #239, 1732.050807568790600, 1.047197551196576100 ) ;
#66 = CARTESIAN_POINT ( 'NONE',  ( 15.49999999999996800, 1.232595164407830900E-029, 0.0000000000000000000 ) ) ;
#67 = AXIS2_PLACEMENT_3D ( 'NONE', #247, #26, #182 ) ;
#68 = FACE_OUTER_BOUND ( 'NONE', #180, .T. ) ;
#69 = EDGE_CURVE ( 'NONE', #255, #98, #193, .T. ) ;
#70 = PRODUCT_RELATED_PRODUCT_CATEGORY ( 'detail', '', ( #252 ) ) ;
#71 = EDGE_LOOP ( 'NONE', ( #176, #81, #22 ) ) ;
#72 = ADVANCED_FACE ( 'NONE', ( #11 ), #131, .T. ) ;
#73 = PRODUCT_DEFINITION ( 'UNKNOWN', '', #1, #137 ) ;
#74 = ORIENTED_EDGE ( 'NONE', *, *, #161, .T. ) ;
#75 = ADVANCED_BREP_SHAPE_REPRESENTATION ( '010719~1', ( #24, #237 ), #188 ) ;
#76 = DIRECTION ( 'NONE',  ( -1.000000000000000000, -7.952226867147312100E-031, -0.0000000000000000000 ) ) ;
#77 = DIRECTION ( 'NONE',  ( 0.0000000000000000000, -1.000000000000000000, 0.0000000000000000000 ) ) ;
#78 = APPROVAL_PERSON_ORGANIZATION ( #218, #150, #191 ) ;
#79 = DIRECTION ( 'NONE',  ( 1.000000000000000000, 7.952226867147312100E-031, 0.0000000000000000000 ) ) ;
#80 = FACE_BOUND ( 'NONE', #129, .T. ) ;
#81 = ORIENTED_EDGE ( 'NONE', *, *, #69, .T. ) ;
#82 = CARTESIAN_POINT ( 'NONE',  ( 16.49999999999997200, 1.312117433079304500E-029, 0.0000000000000000000 ) ) ;
#83 = DIRECTION ( 'NONE',  ( 7.952226867147312100E-031, -1.000000000000000000, 0.0000000000000000000 ) ) ;
#84 = ORIENTED_EDGE ( 'NONE', *, *, #149, .F. ) ;
#85 = APPROVAL_ROLE ( '' ) ;
#86 = APPROVAL ( #39, 'UNSPECIFIED' ) ;
#87 = AXIS2_PLACEMENT_3D ( 'NONE', #134, #165, #77 ) ;
#88 = EDGE_CURVE ( 'NONE', #151, #36, #183, .T. ) ;
#89 = COORDINATED_UNIVERSAL_TIME_OFFSET ( 1, 0, .AHEAD. ) ;
#90 = AXIS2_PLACEMENT_3D ( 'NONE', #243, #222, #226 ) ;
#91 = COORDINATED_UNIVERSAL_TIME_OFFSET ( 1, 0, .AHEAD. ) ;
#92 = DIRECTION ( 'NONE',  ( 0.5000000000000187600, -0.8660254037844278300, 1.060575238724893600E-016 ) ) ;
#93 = VECTOR ( 'NONE', #45, 1000.000000000000000 ) ;
#94 = CC_DESIGN_APPROVAL ( #150, ( #13 ) ) ;
#95 = DATE_AND_TIME ( #113, #46 ) ;
#96 = ADVANCED_FACE ( 'NONE', ( #164 ), #272, .T. ) ;
#97 = ORIENTED_EDGE ( 'NONE', *, *, #276, .T. ) ;
#98 = VERTEX_POINT ( 'NONE', #244 ) ;
#99 = DIRECTION ( 'NONE',  ( -0.7071067811865475700, 0.7071067811865474600, 8.659560562354931600E-017 ) ) ;
#100 = CARTESIAN_POINT ( 'NONE',  ( 1015.500000000000100, 8.075486383588095200E-028, 0.0000000000000000000 ) ) ;
#101 = DIRECTION ( 'NONE',  ( 0.5000000000000187600, 0.8660254037844278300, 0.0000000000000000000 ) ) ;
#102 = DIRECTION ( 'NONE',  ( 0.0000000000000000000, 1.000000000000000000, 0.0000000000000000000 ) ) ;
#103 = CC_DESIGN_SECURITY_CLASSIFICATION ( #13, ( #1 ) ) ;
#104 = PERSON_AND_ORGANIZATION_ROLE ( 'creator' ) ;
#105 = PERSON_AND_ORGANIZATION ( #170, #192 ) ;
#106 = APPROVAL_STATUS ( 'not_yet_approved' ) ;
#107 = EDGE_LOOP ( 'NONE', ( #224, #153, #269 ) ) ;
#108 = ORIENTED_EDGE ( 'NONE', *, *, #54, .F. ) ;
#109 = DATE_TIME_ROLE ( 'classification_date' ) ;
#110 = APPLICATION_CONTEXT ( 'configuration controlled 3d designs of mechanical parts and assemblies' ) ;
#111 = APPROVAL_DATE_TIME ( #42, #86 ) ;
#112 = FACE_OUTER_BOUND ( 'NONE', #211, .T. ) ;
#113 = CALENDAR_DATE ( 2023, 29, 8 ) ;
#114 = VECTOR ( 'NONE', #101, 1000.000000000000000 ) ;
#115 = DIRECTION ( 'NONE',  ( 0.0000000000000000000, -1.000000000000000000, 0.0000000000000000000 ) ) ;
#116 = PERSON_AND_ORGANIZATION ( #170, #192 ) ;
#117 = CALENDAR_DATE ( 2023, 29, 8 ) ;
#118 = FACE_OUTER_BOUND ( 'NONE', #71, .T. ) ;
#119 = VECTOR ( 'NONE', #92, 1000.000000000000000 ) ;
#120 = DIRECTION ( 'NONE',  ( -1.000000000000000000, -7.952226867147312100E-031, -0.0000000000000000000 ) ) ;
#121 = AXIS2_PLACEMENT_3D ( 'NONE', #82, #130, #33 ) ;
#122 = CARTESIAN_POINT ( 'NONE',  ( 0.5000000000000000000, 3.976113433573656100E-031, 0.0000000000000000000 ) ) ;
#123 = EDGE_CURVE ( 'NONE', #216, #41, #238, .T. ) ;
#124 = DIRECTION ( 'NONE',  ( 1.000000000000000000, 7.952226867147312100E-031, 0.0000000000000000000 ) ) ;
#125 = AXIS2_PLACEMENT_3D ( 'NONE', #37, #251, #83 ) ;
#126 = DATE_AND_TIME ( #117, #138 ) ;
#127 = UNCERTAINTY_MEASURE_WITH_UNIT (LENGTH_MEASURE( 1.000000000000000100E-005 ), #228, 'distance_accuracy_value', 'NONE');
#128 = FACE_OUTER_BOUND ( 'NONE', #107, .T. ) ;
#129 = EDGE_LOOP ( 'NONE', ( #74, #97 ) ) ;
#130 = DIRECTION ( 'NONE',  ( -1.000000000000000000, -7.952226867147312100E-031, -0.0000000000000000000 ) ) ;
#131 = CONICAL_SURFACE ( 'NONE', #87, 2.500000000000000000, 0.7853981633974482800 ) ;
#132 = VERTEX_POINT ( 'NONE', #186 ) ;
#133 = CC_DESIGN_PERSON_AND_ORGANIZATION_ASSIGNMENT ( #155, #62, ( #73 ) ) ;
#134 = CARTESIAN_POINT ( 'NONE',  ( 0.5000000000000000000, 3.976113433573656100E-031, 0.0000000000000000000 ) ) ;
#135 = EDGE_CURVE ( 'NONE', #41, #216, #236, .T. ) ;
#136 = CARTESIAN_POINT ( 'NONE',  ( 16.50000000000000000, 2.500000000000000000, 3.061616997868383100E-016 ) ) ;
#137 = DESIGN_CONTEXT ( 'detailed design', #110, 'design' ) ;
#138 = LOCAL_TIME ( 14, 20, 27.00000000000000000, #52 ) ;
#139 = ORIENTED_EDGE ( 'NONE', *, *, #88, .F. ) ;
#140 = ADVANCED_FACE ( 'NONE', ( #275 ), #15, .T. ) ;
#141 = CIRCLE ( 'NONE', #16, 2.500000000000000000 ) ;
#142 = CARTESIAN_POINT ( 'NONE',  ( 0.0000000000000000000, 0.0000000000000000000, 0.0000000000000000000 ) ) ;
#143 = DIRECTION ( 'NONE',  ( -1.000000000000000000, -7.952226867147312100E-031, -0.0000000000000000000 ) ) ;
#144 = CARTESIAN_POINT ( 'NONE',  ( 15.49999999999996800, 1.232595164407830900E-029, 0.0000000000000000000 ) ) ;
#145 = APPLICATION_PROTOCOL_DEFINITION ( 'international standard', 'config_control_design', 1994, #110 ) ;
#146 = CC_DESIGN_APPROVAL ( #264, ( #73 ) ) ;
#147 = ORIENTED_EDGE ( 'NONE', *, *, #258, .F. ) ;
#148 = DIRECTION ( 'NONE',  ( 1.000000000000000000, 0.0000000000000000000, 0.0000000000000000000 ) ) ;
#149 = EDGE_CURVE ( 'NONE', #216, #151, #219, .T. ) ;
#150 = APPROVAL ( #106, 'UNSPECIFIED' ) ;
#151 = VERTEX_POINT ( 'NONE', #185 ) ;
#152 = CALENDAR_DATE ( 2023, 29, 8 ) ;
#153 = ORIENTED_EDGE ( 'NONE', *, *, #61, .T. ) ;
#154 = ADVANCED_FACE ( 'NONE', ( #112 ), #166, .T. ) ;
#155 = PERSON_AND_ORGANIZATION ( #170, #192 ) ;
#156 = DIRECTION ( 'NONE',  ( 1.000000000000000000, 7.952226867147312100E-031, 0.0000000000000000000 ) ) ;
#157 = ORIENTED_EDGE ( 'NONE', *, *, #20, .F. ) ;
#158 = AXIS2_PLACEMENT_3D ( 'NONE', #100, #79, #102 ) ;
#159 = PLANE ( 'NONE',  #67 ) ;
#160 = DIRECTION ( 'NONE',  ( -1.000000000000000000, -7.952226867147312100E-031, -0.0000000000000000000 ) ) ;
#161 = EDGE_CURVE ( 'NONE', #98, #190, #8, .T. ) ;
#162 = DIRECTION ( 'NONE',  ( 7.952226867147312100E-031, -1.000000000000000000, 0.0000000000000000000 ) ) ;
#163 = APPROVAL_DATE_TIME ( #95, #264 ) ;
#164 = FACE_OUTER_BOUND ( 'NONE', #241, .T. ) ;
#165 = DIRECTION ( 'NONE',  ( -1.000000000000000000, -7.952226867147312100E-031, -0.0000000000000000000 ) ) ;
#166 = CYLINDRICAL_SURFACE ( 'NONE', #196, 2.500000000000000000 ) ;
#167 = ORIENTED_EDGE ( 'NONE', *, *, #217, .F. ) ;
#168 =( NAMED_UNIT ( * ) PLANE_ANGLE_UNIT ( ) SI_UNIT ( $, .RADIAN. ) );
#169 = EDGE_LOOP ( 'NONE', ( #266, #171, #147, #279 ) ) ;
#170 = PERSON ( 'UNSPECIFIED', 'UNSPECIFIED', 'UNSPECIFIED', ('UNSPECIFIED'), ('UNSPECIFIED'), ('UNSPECIFIED') ) ;
#171 = ORIENTED_EDGE ( 'NONE', *, *, #149, .T. ) ;
#172 = CC_DESIGN_APPROVAL ( #86, ( #1 ) ) ;
#173 = CARTESIAN_POINT ( 'NONE',  ( 0.5000000000000000000, -2.500000000000000000, 0.0000000000000000000 ) ) ;
#174 = CARTESIAN_POINT ( 'NONE',  ( 15.49999999999996800, 1.232595164407830900E-029, 0.0000000000000000000 ) ) ;
#175 = EDGE_CURVE ( 'NONE', #41, #36, #200, .T. ) ;
#176 = ORIENTED_EDGE ( 'NONE', *, *, #61, .F. ) ;
#177 = ADVANCED_FACE ( 'NONE', ( #118 ), #65, .F. ) ;
#178 = CC_DESIGN_DATE_AND_TIME_ASSIGNMENT ( #30, #109, ( #13 ) ) ;
#179 = ADVANCED_FACE ( 'NONE', ( #128 ), #274, .F. ) ;
#180 = EDGE_LOOP ( 'NONE', ( #4, #204 ) ) ;
#181 = PLANE ( 'NONE',  #38 ) ;
#182 = DIRECTION ( 'NONE',  ( 7.952226867147312100E-031, -1.000000000000000000, 0.0000000000000000000 ) ) ;
#183 = CIRCLE ( 'NONE', #220, 3.000000000000000000 ) ;
#184 = AXIS2_PLACEMENT_3D ( 'NONE', #187, #32, #206 ) ;
#185 = CARTESIAN_POINT ( 'NONE',  ( 2.385668060144193600E-030, 3.000000000000000000, 3.673940397442059400E-016 ) ) ;
#186 = CARTESIAN_POINT ( 'NONE',  ( 16.50000000000000000, -2.500000000000000000, 0.0000000000000000000 ) ) ;
#187 = CARTESIAN_POINT ( 'NONE',  ( 0.5000000000000000000, 3.976113433573656100E-031, 0.0000000000000000000 ) ) ;
#188 =( GEOMETRIC_REPRESENTATION_CONTEXT ( 3 ) GLOBAL_UNCERTAINTY_ASSIGNED_CONTEXT ( ( #127 ) ) GLOBAL_UNIT_ASSIGNED_CONTEXT ( ( #228, #168, #35 ) ) REPRESENTATION_CONTEXT ( 'NONE', 'WORKASPACE' ) );
#189 = DIRECTION ( 'NONE',  ( 0.0000000000000000000, 0.0000000000000000000, 1.000000000000000000 ) ) ;
#190 = VERTEX_POINT ( 'NONE', #51 ) ;
#191 = APPROVAL_ROLE ( '' ) ;
#192 = ORGANIZATION ( 'UNSPECIFIED', 'UNSPECIFIED', '' ) ;
#193 = LINE ( 'NONE', #174, #114 ) ;
#194 = ORIENTED_EDGE ( 'NONE', *, *, #123, .T. ) ;
#195 = CARTESIAN_POINT ( 'NONE',  ( 16.50000000000000000, 1.312117433079306700E-029, 0.0000000000000000000 ) ) ;
#196 = AXIS2_PLACEMENT_3D ( 'NONE', #142, #143, #225 ) ;
#197 = CARTESIAN_POINT ( 'NONE',  ( 2.385668060144193600E-030, -3.000000000000000000, 0.0000000000000000000 ) ) ;
#198 = PRODUCT_DEFINITION_SHAPE ( 'NONE', 'NONE',  #73 ) ;
#199 = ADVANCED_FACE ( 'NONE', ( #253, #80 ), #159, .F. ) ;
#200 = LINE ( 'NONE', #56, #25 ) ;
#201 = PERSON_AND_ORGANIZATION ( #170, #192 ) ;
#202 = CC_DESIGN_PERSON_AND_ORGANIZATION_ASSIGNMENT ( #245, #104, ( #1 ) ) ;
#203 = ORIENTED_EDGE ( 'NONE', *, *, #54, .T. ) ;
#204 = ORIENTED_EDGE ( 'NONE', *, *, #88, .T. ) ;
#205 = CARTESIAN_POINT ( 'NONE',  ( 0.5000000000000000000, 2.500000000000000000, 3.061616997868383100E-016 ) ) ;
#206 = DIRECTION ( 'NONE',  ( 0.0000000000000000000, -1.000000000000000000, 0.0000000000000000000 ) ) ;
#207 = CARTESIAN_POINT ( 'NONE',  ( 0.5000000000000000000, 3.976113433573656100E-031, 0.0000000000000000000 ) ) ;
#208 = CARTESIAN_POINT ( 'NONE',  ( 0.0000000000000000000, 0.0000000000000000000, 0.0000000000000000000 ) ) ;
#209 = ORIENTED_EDGE ( 'NONE', *, *, #123, .F. ) ;
#210 = APPROVAL_ROLE ( '' ) ;
#211 = EDGE_LOOP ( 'NONE', ( #257, #49, #231, #260 ) ) ;
#212 = PERSON_AND_ORGANIZATION_ROLE ( 'design_supplier' ) ;
#213 = PERSON_AND_ORGANIZATION_ROLE ( 'design_owner' ) ;
#214 = APPROVAL_DATE_TIME ( #126, #150 ) ;
#215 = APPROVAL_PERSON_ORGANIZATION ( #116, #264, #210 ) ;
#216 = VERTEX_POINT ( 'NONE', #50 ) ;
#217 = EDGE_CURVE ( 'NONE', #18, #216, #43, .T. ) ;
#218 = PERSON_AND_ORGANIZATION ( #170, #192 ) ;
#219 = LINE ( 'NONE', #205, #14 ) ;
#220 = AXIS2_PLACEMENT_3D ( 'NONE', #227, #5, #162 ) ;
#221 = CALENDAR_DATE ( 2023, 29, 8 ) ;
#222 = DIRECTION ( 'NONE',  ( -1.000000000000000000, -7.952226867147312100E-031, -0.0000000000000000000 ) ) ;
#223 = VECTOR ( 'NONE', #60, 1000.000000000000000 ) ;
#224 = ORIENTED_EDGE ( 'NONE', *, *, #69, .F. ) ;
#225 = DIRECTION ( 'NONE',  ( 7.952226867147312100E-031, -1.000000000000000000, 0.0000000000000000000 ) ) ;
#226 = DIRECTION ( 'NONE',  ( 0.0000000000000000000, -1.000000000000000000, 0.0000000000000000000 ) ) ;
#227 = CARTESIAN_POINT ( 'NONE',  ( 2.385668060144193600E-030, 1.897137364397386700E-060, 0.0000000000000000000 ) ) ;
#228 =( LENGTH_UNIT ( ) NAMED_UNIT ( * ) SI_UNIT ( .MILLI., .METRE. ) );
#229 = ORIENTED_EDGE ( 'NONE', *, *, #175, .T. ) ;
#230 = APPROVAL_STATUS ( 'not_yet_approved' ) ;
#231 = ORIENTED_EDGE ( 'NONE', *, *, #135, .F. ) ;
#232 = CIRCLE ( 'NONE', #47, 2.500000000000000000 ) ;
#233 = AXIS2_PLACEMENT_3D ( 'NONE', #208, #2, #28 ) ;
#234 = CARTESIAN_POINT ( 'NONE',  ( 16.50000000000000000, 1.312117433079306700E-029, 0.0000000000000000000 ) ) ;
#235 = CIRCLE ( 'NONE', #121, 1.732050807568797900 ) ;
#236 = CIRCLE ( 'NONE', #184, 2.500000000000000000 ) ;
#237 = AXIS2_PLACEMENT_3D ( 'NONE', #12, #189, #148 ) ;
#238 = CIRCLE ( 'NONE', #259, 2.500000000000000000 ) ;
#239 = AXIS2_PLACEMENT_3D ( 'NONE', #6, #124, #55 ) ;
#240 = DIRECTION ( 'NONE',  ( 0.0000000000000000000, -1.000000000000000000, 0.0000000000000000000 ) ) ;
#241 = EDGE_LOOP ( 'NONE', ( #167, #203, #27, #209 ) ) ;
#242 = DIRECTION ( 'NONE',  ( -1.000000000000000000, -7.952226867147312100E-031, -0.0000000000000000000 ) ) ;
#243 = CARTESIAN_POINT ( 'NONE',  ( 16.49999999999997200, 1.312117433079304500E-029, 0.0000000000000000000 ) ) ;
#244 = CARTESIAN_POINT ( 'NONE',  ( 16.49999999999997200, 1.732050807568798100, 0.0000000000000000000 ) ) ;
#245 = PERSON_AND_ORGANIZATION ( #170, #192 ) ;
#246 = EDGE_LOOP ( 'NONE', ( #157, #108 ) ) ;
#247 = CARTESIAN_POINT ( 'NONE',  ( 16.49999999999998600, 2.500000000000000000, 0.0000000000000000000 ) ) ;
#248 = MECHANICAL_CONTEXT ( 'NONE', #57, 'mechanical' ) ;
#249 = COORDINATED_UNIVERSAL_TIME_OFFSET ( 1, 0, .AHEAD. ) ;
#250 = LINE ( 'NONE', #66, #119 ) ;
#251 = DIRECTION ( 'NONE',  ( -1.000000000000000000, -7.952226867147312100E-031, -0.0000000000000000000 ) ) ;
#252 = PRODUCT ( '010719~1', '010719~1', '', ( #248 ) ) ;
#253 = FACE_OUTER_BOUND ( 'NONE', #246, .T. ) ;
#254 = CARTESIAN_POINT ( 'NONE',  ( 1.988056716786828200E-030, -2.500000000000000000, 0.0000000000000000000 ) ) ;
#255 = VERTEX_POINT ( 'NONE', #144 ) ;
#256 = CC_DESIGN_PERSON_AND_ORGANIZATION_ASSIGNMENT ( #201, #213, ( #252 ) ) ;
#257 = ORIENTED_EDGE ( 'NONE', *, *, #20, .T. ) ;
#258 = EDGE_CURVE ( 'NONE', #36, #151, #277, .T. ) ;
#259 = AXIS2_PLACEMENT_3D ( 'NONE', #122, #242, #262 ) ;
#260 = ORIENTED_EDGE ( 'NONE', *, *, #40, .F. ) ;
#261 = CARTESIAN_POINT ( 'NONE',  ( -1.988056716786828200E-030, 2.500000000000000000, 3.061616997868383100E-016 ) ) ;
#262 = DIRECTION ( 'NONE',  ( 0.0000000000000000000, -1.000000000000000000, 0.0000000000000000000 ) ) ;
#263 = DIRECTION ( 'NONE',  ( 0.0000000000000000000, -1.000000000000000000, 0.0000000000000000000 ) ) ;
#264 = APPROVAL ( #230, 'UNSPECIFIED' ) ;
#265 = LOCAL_TIME ( 14, 20, 27.00000000000000000, #91 ) ;
#266 = ORIENTED_EDGE ( 'NONE', *, *, #135, .T. ) ;
#267 = DIRECTION ( 'NONE',  ( -0.7071067811865475700, -0.7071067811865474600, 0.0000000000000000000 ) ) ;
#268 = APPROVAL_PERSON_ORGANIZATION ( #21, #86, #85 ) ;
#269 = ORIENTED_EDGE ( 'NONE', *, *, #161, .F. ) ;
#270 = PERSON_AND_ORGANIZATION_ROLE ( 'classification_officer' ) ;
#271 = COORDINATED_UNIVERSAL_TIME_OFFSET ( 1, 0, .AHEAD. ) ;
#272 = CYLINDRICAL_SURFACE ( 'NONE', #233, 2.500000000000000000 ) ;
#273 = PERSON_AND_ORGANIZATION ( #170, #192 ) ;
#274 = CONICAL_SURFACE ( 'NONE', #158, 1732.050807568790600, 1.047197551196576100 ) ;
#275 = FACE_OUTER_BOUND ( 'NONE', #169, .T. ) ;
#276 = EDGE_CURVE ( 'NONE', #190, #98, #235, .T. ) ;
#277 = CIRCLE ( 'NONE', #125, 3.000000000000000000 ) ;
#278 = CC_DESIGN_PERSON_AND_ORGANIZATION_ASSIGNMENT ( #273, #212, ( #1 ) ) ;
#279 = ORIENTED_EDGE ( 'NONE', *, *, #175, .F. ) ;
ENDSEC;
END-ISO-10303-21;
