ISO-10303-21;
HEADER;
/* Generated by software containing ST-Developer
 * from STEP Tools, Inc. (www.steptools.com) 
 */

FILE_DESCRIPTION(
/* description */ ('Alibre Inc.'),
/* implementation_level */ '2;1');

FILE_NAME(
/* name */ 'export-CC229D17-AA4E-4D6B-A341-9A7B4CA31684',
/* time_stamp */ '2020-10-07T14:34:57+02:00',
/* author */ (''),
/* organization */ (''),
/* preprocessor_version */ 'ST-DEVELOPER v17',
/* originating_system */ 'Alibre',
/* authorisation */ '');

FILE_SCHEMA (('CONFIG_CONTROL_DESIGN'));
ENDSEC;

DATA;
#10=MECHANICAL_CONTEXT('detailed design',#18,'mechanical');
#11=PRODUCT_RELATED_PRODUCT_CATEGORY('detail','',(#98));
#12=CC_DESIGN_SECURITY_CLASSIFICATION(#14,(#97));
#13=SECURITY_CLASSIFICATION_LEVEL('unclassified');
#14=SECURITY_CLASSIFICATION('Jm\X\E9no','Bezpe\X2\010D\X0\nost pro ver
zi',#13);
#15=SHAPE_DEFINITION_REPRESENTATION(#16,#688);
#16=PRODUCT_DEFINITION_SHAPE('','DefiniceDesc',#96);
#17=APPLICATION_PROTOCOL_DEFINITION('AP definition status',
'config_control_design',1994,#18);
#18=APPLICATION_CONTEXT(
'control the configuration of three dimensional design');
#19=DESIGN_CONTEXT('detailed design',#18,'design');
#20=PERSON_AND_ORGANIZATION_ROLE('creator');
#21=PERSON_AND_ORGANIZATION_ROLE('classification_officer');
#22=PERSON_AND_ORGANIZATION_ROLE('creator');
#23=PERSON_AND_ORGANIZATION_ROLE('design_supplier');
#24=PERSON_AND_ORGANIZATION_ROLE('design_owner');
#25=CC_DESIGN_PERSON_AND_ORGANIZATION_ASSIGNMENT(#57,#20,(#96));
#26=CC_DESIGN_PERSON_AND_ORGANIZATION_ASSIGNMENT(#60,#21,(#14));
#27=CC_DESIGN_PERSON_AND_ORGANIZATION_ASSIGNMENT(#61,#22,(#97));
#28=CC_DESIGN_PERSON_AND_ORGANIZATION_ASSIGNMENT(#62,#23,(#97));
#29=CC_DESIGN_PERSON_AND_ORGANIZATION_ASSIGNMENT(#63,#24,(#98));
#30=DATE_TIME_ROLE('creation_date');
#31=DATE_TIME_ROLE('classification_date');
#32=CC_DESIGN_DATE_AND_TIME_ASSIGNMENT(#86,#30,(#96));
#33=CC_DESIGN_DATE_AND_TIME_ASSIGNMENT(#89,#31,(#14));
#34=CC_DESIGN_APPROVAL(#93,(#96));
#35=CC_DESIGN_APPROVAL(#94,(#97));
#36=CC_DESIGN_APPROVAL(#95,(#14));
#37=APPROVAL_PERSON_ORGANIZATION(#56,#93,#64);
#38=APPROVAL_PERSON_ORGANIZATION(#58,#94,#65);
#39=APPROVAL_PERSON_ORGANIZATION(#59,#95,#66);
#40=ORGANIZATION('DEFINOVAN\X\DD_SCHVALOVATEL_ORG_ID',
'DEFINOVAN\X\DD_SCHVALOVATEL_ORG_N\X\C1ZEV',
'DEFINOVAN\X\DD_SCHVALOVATEL_ORG_POPIS');
#41=ORGANIZATION('DEF_AUTOR_ORG_ID','DEF_AUTOR_ORG_N\X\C1ZEV',
'DEF_AUTOR_ORG_POPIS');
#42=ORGANIZATION('SCHVALOVATEL_ORG_ID','SCHVALOVATEL_ORG_N\X\C1ZEV',
'SCHVALOVATEL_ORG_POPIS');
#43=ORGANIZATION('SECURITY_SCHVALOVATEL_ORG_ID',
'SECURITY_SCHVALOVATEL_ORG_M\X\C1ZEV','SECURITY_SCHVALOVATEL_ORG_POPIS');
#44=ORGANIZATION('KLASIFIKA\X2\010C\X0\N\X\CD\X\DA\X2\0158\X0\EDN\X\CD
K_ORG_ID','KLASIFIKA\X2\010C\X0\N\X\CD\X\DA\X2\0158\X0\EDN\X\CDK_ORG_N
\X\C1ZEV','KLASIFIKA\X2\010C\X0\N\X\CD\X\DA\X2\0158\X0\EDN\X\CDK_ORG_P
OPIS');
#45=ORGANIZATION('AUTOR_ORG_ID','AUTOR_ORG_N\X\C1ZEV','AUTOR_ORG_POPIS');
#46=ORGANIZATION('DODAVATEL_ORG_ID','DODAVATEL_ORG_N\X\C1ZEV',
'DODAVATEL_ORG_POPIS');
#47=ORGANIZATION('MAJITEL_SPOL_ID','MAJITEL_SPOL_N\X\C1ZEV',
'MAJITEL_SPOL_DESCR');
#48=PERSON('DEFINITION_schvalovatelID',
'DEFINOVAN\X\DD_SCHVALOVATEL_P\X2\015800CD\X0\JMEN\X\CD',
'DEFINOVAN\X\DD_SCHVALOVATEL_JM\X\C9NO',$,$,$);
#49=PERSON('DEF_autorID','DEF_AUTOR_P\X2\015800CD\X0\JMEN\X\CD',
'DEF_AUTOR_JM\X\C9NO',$,$,$);
#50=PERSON('schvalovatelID','SCHVALOVATEL_P\X2\015800CD\X0\JMEN\X\CD',
'SCHVALOVATEL_JM\X\C9NO',$,$,$);
#51=PERSON('SECURITY_schvalovatelID','SECURITY_P\X2\015800CD\X0\JMEN\X\CD',
'SECURITY_SCHVALOVATEL_JM\X\C9NO',$,$,$);
#52=PERSON('t\X2\015900ED\X0\di\X2\010D\X0\ID',
'KLASIFIKA\X2\010C\X0\N\X\CD\X\DA\X2\0158\X0\EDN\X\CDK_P\X2\015800CD\X0\J
MEN\X\CD','KLASIFIKA\X2\010C\X0\N\X\CD\X\DA\X2\0158\X0\EDN\X\CDK_JM\X\C9
NO',$,$,$);
#53=PERSON('autorID','AUTOR_P\X2\015800CD\X0\JMEN\X\CD','AUTOR_JM\X\C9
NO',$,$,$);
#54=PERSON('DodavatelID','DODAVATEL_P\X2\015800CD\X0\JMEN\X\CD',
'DODAVATEL_JM\X\C9NO',$,$,$);
#55=PERSON('majitelID','MAJITEL_P\X2\015800CD\X0\JMEN\X\CD',
'MAJITEL_JM\X\C9NO',$,$,$);
#56=PERSON_AND_ORGANIZATION(#48,#40);
#57=PERSON_AND_ORGANIZATION(#49,#41);
#58=PERSON_AND_ORGANIZATION(#50,#42);
#59=PERSON_AND_ORGANIZATION(#51,#43);
#60=PERSON_AND_ORGANIZATION(#52,#44);
#61=PERSON_AND_ORGANIZATION(#53,#45);
#62=PERSON_AND_ORGANIZATION(#54,#46);
#63=PERSON_AND_ORGANIZATION(#55,#47);
#64=APPROVAL_ROLE('definition_approval');
#65=APPROVAL_ROLE('version_approval');
#66=APPROVAL_ROLE('security_approval');
#67=APPROVAL_DATE_TIME(#85,#93);
#68=APPROVAL_DATE_TIME(#87,#94);
#69=APPROVAL_DATE_TIME(#88,#95);
#70=COORDINATED_UNIVERSAL_TIME_OFFSET(1,0,.AHEAD.);
#71=COORDINATED_UNIVERSAL_TIME_OFFSET(1,0,.AHEAD.);
#72=COORDINATED_UNIVERSAL_TIME_OFFSET(1,0,.AHEAD.);
#73=COORDINATED_UNIVERSAL_TIME_OFFSET(1,0,.AHEAD.);
#74=COORDINATED_UNIVERSAL_TIME_OFFSET(1,0,.AHEAD.);
#75=LOCAL_TIME(9,38,37.,#70);
#76=LOCAL_TIME(9,38,37.,#71);
#77=LOCAL_TIME(9,38,37.,#72);
#78=LOCAL_TIME(9,38,37.,#73);
#79=LOCAL_TIME(9,38,37.,#74);
#80=CALENDAR_DATE(2015,1,12);
#81=CALENDAR_DATE(2015,1,12);
#82=CALENDAR_DATE(2015,1,12);
#83=CALENDAR_DATE(2015,1,12);
#84=CALENDAR_DATE(2015,1,12);
#85=DATE_AND_TIME(#80,#75);
#86=DATE_AND_TIME(#81,#76);
#87=DATE_AND_TIME(#82,#77);
#88=DATE_AND_TIME(#83,#78);
#89=DATE_AND_TIME(#84,#79);
#90=APPROVAL_STATUS('not_yet_approved');
#91=APPROVAL_STATUS('not_yet_approved');
#92=APPROVAL_STATUS('not_yet_approved');
#93=APPROVAL(#90,'definice schv\X\E1len\X\E1');
#94=APPROVAL(#91,'verze schv\X\E1len\X\E1');
#95=APPROVAL(#92,'bezpe\X2\010D\X0\nost schv\X\E1len\X\E1');
#96=PRODUCT_DEFINITION('DefiniceID','DefiniceDesc',#97,#19);
#97=PRODUCT_DEFINITION_FORMATION_WITH_SPECIFIED_SOURCE(
'PRODUKT_VERZE_ID','PRODUKT_VERZE_POPIS',#98,.NOT_KNOWN.);
#98=PRODUCT('ID_1','Kladka POM 240','',(#10));
#99=(
LENGTH_UNIT()
NAMED_UNIT(*)
SI_UNIT(.CENTI.,.METRE.)
);
#100=(
NAMED_UNIT(*)
PLANE_ANGLE_UNIT()
SI_UNIT($,.RADIAN.)
);
#101=(
NAMED_UNIT(*)
SI_UNIT($,.STERADIAN.)
SOLID_ANGLE_UNIT()
);
#102=UNCERTAINTY_MEASURE_WITH_UNIT(LENGTH_MEASURE(1.E-6),#99,
'DISTANCE_ACCURACY_VALUE',
'Maximum model space distance between geometric entities at asserted c
onnectivities');
#103=(
GEOMETRIC_REPRESENTATION_CONTEXT(3)
GLOBAL_UNCERTAINTY_ASSIGNED_CONTEXT((#102))
GLOBAL_UNIT_ASSIGNED_CONTEXT((#101,#100,#99))
REPRESENTATION_CONTEXT('ID1','3D')
);
#104=TOROIDAL_SURFACE('',#460,11.1,0.0999999999999757);
#105=PLANE('',#454);
#106=PLANE('',#455);
#107=PLANE('',#470);
#108=PLANE('',#472);
#109=PLANE('',#476);
#110=PLANE('',#478);
#111=PLANE('',#483);
#112=CONICAL_SURFACE('',#448,2.7,0.785398163397448);
#113=CONICAL_SURFACE('',#451,10.7,0.785398163397476);
#114=CONICAL_SURFACE('',#457,11.526229924066,1.07537596026681);
#115=CONICAL_SURFACE('',#462,11.526229924066,1.07537596026682);
#116=CONICAL_SURFACE('',#464,10.9,0.785398163397421);
#117=CONICAL_SURFACE('',#467,2.7,0.785398163397448);
#118=VERTEX_POINT('',#592);
#119=VERTEX_POINT('',#594);
#120=VERTEX_POINT('',#597);
#121=VERTEX_POINT('',#599);
#122=VERTEX_POINT('',#602);
#123=VERTEX_POINT('',#604);
#124=VERTEX_POINT('',#607);
#125=VERTEX_POINT('',#609);
#126=VERTEX_POINT('',#612);
#127=VERTEX_POINT('',#614);
#128=VERTEX_POINT('',#617);
#129=VERTEX_POINT('',#619);
#130=VERTEX_POINT('',#622);
#131=VERTEX_POINT('',#624);
#132=VERTEX_POINT('',#628);
#133=VERTEX_POINT('',#631);
#134=VERTEX_POINT('',#633);
#135=VERTEX_POINT('',#636);
#136=VERTEX_POINT('',#639);
#137=VERTEX_POINT('',#642);
#138=VERTEX_POINT('',#644);
#139=VERTEX_POINT('',#647);
#140=VERTEX_POINT('',#649);
#141=VERTEX_POINT('',#654);
#142=VERTEX_POINT('',#657);
#143=VERTEX_POINT('',#660);
#144=VERTEX_POINT('',#663);
#145=VERTEX_POINT('',#665);
#146=VERTEX_POINT('',#668);
#147=VERTEX_POINT('',#671);
#148=VERTEX_POINT('',#674);
#149=VERTEX_POINT('',#676);
#150=CIRCLE('',#434,2.25);
#151=CIRCLE('',#435,2.25);
#152=CIRCLE('',#437,2.25);
#153=CIRCLE('',#438,2.25);
#154=CIRCLE('',#440,2.25);
#155=CIRCLE('',#441,2.25);
#156=CIRCLE('',#443,2.25);
#157=CIRCLE('',#444,2.25);
#158=CIRCLE('',#446,2.25);
#159=CIRCLE('',#447,2.25);
#160=CIRCLE('',#449,2.5);
#161=CIRCLE('',#450,2.9);
#162=CIRCLE('',#452,11.);
#163=CIRCLE('',#453,10.6);
#164=CIRCLE('',#456,12.);
#165=CIRCLE('',#458,11.052459848132);
#166=CIRCLE('',#459,12.);
#167=CIRCLE('',#461,11.052459848132);
#168=CIRCLE('',#463,12.);
#169=CIRCLE('',#465,10.6);
#170=CIRCLE('',#466,11.);
#171=CIRCLE('',#468,2.9);
#172=CIRCLE('',#469,2.5);
#173=CIRCLE('',#473,2.);
#174=CIRCLE('',#475,2.);
#175=CIRCLE('',#477,2.1);
#176=CIRCLE('',#479,2.1);
#177=CIRCLE('',#480,2.225);
#178=CIRCLE('',#482,2.225);
#179=CIRCLE('',#484,2.1);
#180=CIRCLE('',#486,12.);
#181=CIRCLE('',#487,2.1);
#182=EDGE_CURVE('',#118,#118,#150,.T.);
#183=EDGE_CURVE('',#119,#119,#151,.T.);
#184=EDGE_CURVE('',#120,#120,#152,.T.);
#185=EDGE_CURVE('',#121,#121,#153,.T.);
#186=EDGE_CURVE('',#122,#122,#154,.T.);
#187=EDGE_CURVE('',#123,#123,#155,.T.);
#188=EDGE_CURVE('',#124,#124,#156,.T.);
#189=EDGE_CURVE('',#125,#125,#157,.T.);
#190=EDGE_CURVE('',#126,#126,#158,.T.);
#191=EDGE_CURVE('',#127,#127,#159,.T.);
#192=EDGE_CURVE('',#128,#128,#160,.T.);
#193=EDGE_CURVE('',#129,#129,#161,.T.);
#194=EDGE_CURVE('',#130,#130,#162,.T.);
#195=EDGE_CURVE('',#131,#131,#163,.T.);
#196=EDGE_CURVE('',#132,#132,#164,.T.);
#197=EDGE_CURVE('',#133,#133,#165,.T.);
#198=EDGE_CURVE('',#134,#134,#166,.T.);
#199=EDGE_CURVE('',#135,#135,#167,.T.);
#200=EDGE_CURVE('',#136,#136,#168,.T.);
#201=EDGE_CURVE('',#137,#137,#169,.T.);
#202=EDGE_CURVE('',#138,#138,#170,.T.);
#203=EDGE_CURVE('',#139,#139,#171,.T.);
#204=EDGE_CURVE('',#140,#140,#172,.T.);
#205=EDGE_CURVE('',#141,#141,#173,.T.);
#206=EDGE_CURVE('',#142,#142,#174,.T.);
#207=EDGE_CURVE('',#143,#143,#175,.T.);
#208=EDGE_CURVE('',#144,#144,#176,.T.);
#209=EDGE_CURVE('',#145,#145,#177,.T.);
#210=EDGE_CURVE('',#146,#146,#178,.T.);
#211=EDGE_CURVE('',#147,#147,#179,.T.);
#212=EDGE_CURVE('',#148,#148,#180,.T.);
#213=EDGE_CURVE('',#149,#149,#181,.T.);
#214=ORIENTED_EDGE('',*,*,#182,.F.);
#215=ORIENTED_EDGE('',*,*,#183,.F.);
#216=ORIENTED_EDGE('',*,*,#184,.F.);
#217=ORIENTED_EDGE('',*,*,#185,.F.);
#218=ORIENTED_EDGE('',*,*,#186,.F.);
#219=ORIENTED_EDGE('',*,*,#187,.F.);
#220=ORIENTED_EDGE('',*,*,#188,.F.);
#221=ORIENTED_EDGE('',*,*,#189,.F.);
#222=ORIENTED_EDGE('',*,*,#190,.F.);
#223=ORIENTED_EDGE('',*,*,#191,.F.);
#224=ORIENTED_EDGE('',*,*,#192,.F.);
#225=ORIENTED_EDGE('',*,*,#193,.F.);
#226=ORIENTED_EDGE('',*,*,#194,.F.);
#227=ORIENTED_EDGE('',*,*,#195,.T.);
#228=ORIENTED_EDGE('',*,*,#183,.T.);
#229=ORIENTED_EDGE('',*,*,#185,.T.);
#230=ORIENTED_EDGE('',*,*,#187,.T.);
#231=ORIENTED_EDGE('',*,*,#189,.T.);
#232=ORIENTED_EDGE('',*,*,#191,.T.);
#233=ORIENTED_EDGE('',*,*,#193,.T.);
#234=ORIENTED_EDGE('',*,*,#195,.F.);
#235=ORIENTED_EDGE('',*,*,#194,.T.);
#236=ORIENTED_EDGE('',*,*,#196,.F.);
#237=ORIENTED_EDGE('',*,*,#197,.T.);
#238=ORIENTED_EDGE('',*,*,#198,.F.);
#239=ORIENTED_EDGE('',*,*,#199,.T.);
#240=ORIENTED_EDGE('',*,*,#197,.F.);
#241=ORIENTED_EDGE('',*,*,#200,.F.);
#242=ORIENTED_EDGE('',*,*,#199,.F.);
#243=ORIENTED_EDGE('',*,*,#201,.F.);
#244=ORIENTED_EDGE('',*,*,#202,.F.);
#245=ORIENTED_EDGE('',*,*,#203,.T.);
#246=ORIENTED_EDGE('',*,*,#204,.F.);
#247=ORIENTED_EDGE('',*,*,#182,.T.);
#248=ORIENTED_EDGE('',*,*,#184,.T.);
#249=ORIENTED_EDGE('',*,*,#186,.T.);
#250=ORIENTED_EDGE('',*,*,#188,.T.);
#251=ORIENTED_EDGE('',*,*,#190,.T.);
#252=ORIENTED_EDGE('',*,*,#201,.T.);
#253=ORIENTED_EDGE('',*,*,#203,.F.);
#254=ORIENTED_EDGE('',*,*,#200,.T.);
#255=ORIENTED_EDGE('',*,*,#196,.T.);
#256=ORIENTED_EDGE('',*,*,#204,.T.);
#257=ORIENTED_EDGE('',*,*,#205,.F.);
#258=ORIENTED_EDGE('',*,*,#206,.T.);
#259=ORIENTED_EDGE('',*,*,#205,.T.);
#260=ORIENTED_EDGE('',*,*,#206,.F.);
#261=ORIENTED_EDGE('',*,*,#207,.F.);
#262=ORIENTED_EDGE('',*,*,#208,.F.);
#263=ORIENTED_EDGE('',*,*,#209,.T.);
#264=ORIENTED_EDGE('',*,*,#210,.T.);
#265=ORIENTED_EDGE('',*,*,#209,.F.);
#266=ORIENTED_EDGE('',*,*,#211,.F.);
#267=ORIENTED_EDGE('',*,*,#210,.F.);
#268=ORIENTED_EDGE('',*,*,#207,.T.);
#269=ORIENTED_EDGE('',*,*,#211,.T.);
#270=ORIENTED_EDGE('',*,*,#198,.T.);
#271=ORIENTED_EDGE('',*,*,#212,.T.);
#272=ORIENTED_EDGE('',*,*,#208,.T.);
#273=ORIENTED_EDGE('',*,*,#213,.F.);
#274=ORIENTED_EDGE('',*,*,#202,.T.);
#275=ORIENTED_EDGE('',*,*,#212,.F.);
#276=ORIENTED_EDGE('',*,*,#192,.T.);
#277=ORIENTED_EDGE('',*,*,#213,.T.);
#278=EDGE_LOOP('',(#214));
#279=EDGE_LOOP('',(#215));
#280=EDGE_LOOP('',(#216));
#281=EDGE_LOOP('',(#217));
#282=EDGE_LOOP('',(#218));
#283=EDGE_LOOP('',(#219));
#284=EDGE_LOOP('',(#220));
#285=EDGE_LOOP('',(#221));
#286=EDGE_LOOP('',(#222));
#287=EDGE_LOOP('',(#223));
#288=EDGE_LOOP('',(#224));
#289=EDGE_LOOP('',(#225));
#290=EDGE_LOOP('',(#226));
#291=EDGE_LOOP('',(#227));
#292=EDGE_LOOP('',(#228));
#293=EDGE_LOOP('',(#229));
#294=EDGE_LOOP('',(#230));
#295=EDGE_LOOP('',(#231));
#296=EDGE_LOOP('',(#232));
#297=EDGE_LOOP('',(#233));
#298=EDGE_LOOP('',(#234));
#299=EDGE_LOOP('',(#235));
#300=EDGE_LOOP('',(#236));
#301=EDGE_LOOP('',(#237));
#302=EDGE_LOOP('',(#238));
#303=EDGE_LOOP('',(#239));
#304=EDGE_LOOP('',(#240));
#305=EDGE_LOOP('',(#241));
#306=EDGE_LOOP('',(#242));
#307=EDGE_LOOP('',(#243));
#308=EDGE_LOOP('',(#244));
#309=EDGE_LOOP('',(#245));
#310=EDGE_LOOP('',(#246));
#311=EDGE_LOOP('',(#247));
#312=EDGE_LOOP('',(#248));
#313=EDGE_LOOP('',(#249));
#314=EDGE_LOOP('',(#250));
#315=EDGE_LOOP('',(#251));
#316=EDGE_LOOP('',(#252));
#317=EDGE_LOOP('',(#253));
#318=EDGE_LOOP('',(#254));
#319=EDGE_LOOP('',(#255));
#320=EDGE_LOOP('',(#256));
#321=EDGE_LOOP('',(#257));
#322=EDGE_LOOP('',(#258));
#323=EDGE_LOOP('',(#259));
#324=EDGE_LOOP('',(#260));
#325=EDGE_LOOP('',(#261));
#326=EDGE_LOOP('',(#262));
#327=EDGE_LOOP('',(#263));
#328=EDGE_LOOP('',(#264));
#329=EDGE_LOOP('',(#265));
#330=EDGE_LOOP('',(#266));
#331=EDGE_LOOP('',(#267));
#332=EDGE_LOOP('',(#268));
#333=EDGE_LOOP('',(#269));
#334=EDGE_LOOP('',(#270));
#335=EDGE_LOOP('',(#271));
#336=EDGE_LOOP('',(#272));
#337=EDGE_LOOP('',(#273));
#338=EDGE_LOOP('',(#274));
#339=EDGE_LOOP('',(#275));
#340=EDGE_LOOP('',(#276));
#341=EDGE_LOOP('',(#277));
#342=FACE_BOUND('',#278,.T.);
#343=FACE_BOUND('',#279,.T.);
#344=FACE_BOUND('',#280,.T.);
#345=FACE_BOUND('',#281,.T.);
#346=FACE_BOUND('',#282,.T.);
#347=FACE_BOUND('',#283,.T.);
#348=FACE_BOUND('',#284,.T.);
#349=FACE_BOUND('',#285,.T.);
#350=FACE_BOUND('',#286,.T.);
#351=FACE_BOUND('',#287,.T.);
#352=FACE_BOUND('',#288,.T.);
#353=FACE_BOUND('',#289,.T.);
#354=FACE_BOUND('',#290,.T.);
#355=FACE_BOUND('',#291,.T.);
#356=FACE_BOUND('',#292,.T.);
#357=FACE_BOUND('',#293,.T.);
#358=FACE_BOUND('',#294,.T.);
#359=FACE_BOUND('',#295,.T.);
#360=FACE_BOUND('',#296,.T.);
#361=FACE_BOUND('',#297,.T.);
#362=FACE_BOUND('',#298,.T.);
#363=FACE_BOUND('',#299,.T.);
#364=FACE_BOUND('',#300,.T.);
#365=FACE_BOUND('',#301,.T.);
#366=FACE_BOUND('',#302,.T.);
#367=FACE_BOUND('',#303,.T.);
#368=FACE_BOUND('',#304,.T.);
#369=FACE_BOUND('',#305,.T.);
#370=FACE_BOUND('',#306,.T.);
#371=FACE_BOUND('',#307,.T.);
#372=FACE_BOUND('',#308,.T.);
#373=FACE_BOUND('',#309,.T.);
#374=FACE_BOUND('',#310,.T.);
#375=FACE_BOUND('',#311,.T.);
#376=FACE_BOUND('',#312,.T.);
#377=FACE_BOUND('',#313,.T.);
#378=FACE_BOUND('',#314,.T.);
#379=FACE_BOUND('',#315,.T.);
#380=FACE_BOUND('',#316,.T.);
#381=FACE_BOUND('',#317,.T.);
#382=FACE_BOUND('',#318,.T.);
#383=FACE_BOUND('',#319,.T.);
#384=FACE_BOUND('',#320,.T.);
#385=FACE_BOUND('',#321,.T.);
#386=FACE_BOUND('',#322,.T.);
#387=FACE_BOUND('',#323,.T.);
#388=FACE_BOUND('',#324,.T.);
#389=FACE_BOUND('',#325,.T.);
#390=FACE_BOUND('',#326,.T.);
#391=FACE_BOUND('',#327,.T.);
#392=FACE_BOUND('',#328,.T.);
#393=FACE_BOUND('',#329,.T.);
#394=FACE_BOUND('',#330,.T.);
#395=FACE_BOUND('',#331,.T.);
#396=FACE_BOUND('',#332,.T.);
#397=FACE_BOUND('',#333,.T.);
#398=FACE_BOUND('',#334,.T.);
#399=FACE_BOUND('',#335,.T.);
#400=FACE_BOUND('',#336,.T.);
#401=FACE_BOUND('',#337,.T.);
#402=FACE_BOUND('',#338,.T.);
#403=FACE_BOUND('',#339,.T.);
#404=FACE_BOUND('',#340,.T.);
#405=FACE_BOUND('',#341,.T.);
#406=ADVANCED_FACE('',(#342,#343),#677,.F.);
#407=ADVANCED_FACE('',(#344,#345),#678,.F.);
#408=ADVANCED_FACE('',(#346,#347),#679,.F.);
#409=ADVANCED_FACE('',(#348,#349),#680,.F.);
#410=ADVANCED_FACE('',(#350,#351),#681,.F.);
#411=ADVANCED_FACE('',(#352,#353),#112,.T.);
#412=ADVANCED_FACE('',(#354,#355),#113,.F.);
#413=ADVANCED_FACE('',(#356,#357,#358,#359,#360,#361,#362),#105,.F.);
#414=ADVANCED_FACE('',(#363,#364),#106,.F.);
#415=ADVANCED_FACE('',(#365,#366),#114,.T.);
#416=ADVANCED_FACE('',(#367,#368),#104,.F.);
#417=ADVANCED_FACE('',(#369,#370),#115,.T.);
#418=ADVANCED_FACE('',(#371,#372),#116,.F.);
#419=ADVANCED_FACE('',(#373,#374),#117,.T.);
#420=ADVANCED_FACE('',(#375,#376,#377,#378,#379,#380,#381),#107,.F.);
#421=ADVANCED_FACE('',(#382,#383),#682,.T.);
#422=ADVANCED_FACE('',(#384,#385),#108,.T.);
#423=ADVANCED_FACE('',(#386,#387),#683,.F.);
#424=ADVANCED_FACE('',(#388,#389),#109,.F.);
#425=ADVANCED_FACE('',(#390,#391),#110,.F.);
#426=ADVANCED_FACE('',(#392,#393),#684,.F.);
#427=ADVANCED_FACE('',(#394,#395),#111,.F.);
#428=ADVANCED_FACE('',(#396,#397),#685,.F.);
#429=ADVANCED_FACE('',(#398,#399),#682,.T.);
#430=ADVANCED_FACE('',(#400,#401),#685,.F.);
#431=ADVANCED_FACE('',(#402,#403),#108,.T.);
#432=ADVANCED_FACE('',(#404,#405),#106,.F.);
#433=AXIS2_PLACEMENT_3D('',#590,#488,#489);
#434=AXIS2_PLACEMENT_3D('',#591,#490,#491);
#435=AXIS2_PLACEMENT_3D('',#593,#492,#493);
#436=AXIS2_PLACEMENT_3D('',#595,#494,#495);
#437=AXIS2_PLACEMENT_3D('',#596,#496,#497);
#438=AXIS2_PLACEMENT_3D('',#598,#498,#499);
#439=AXIS2_PLACEMENT_3D('',#600,#500,#501);
#440=AXIS2_PLACEMENT_3D('',#601,#502,#503);
#441=AXIS2_PLACEMENT_3D('',#603,#504,#505);
#442=AXIS2_PLACEMENT_3D('',#605,#506,#507);
#443=AXIS2_PLACEMENT_3D('',#606,#508,#509);
#444=AXIS2_PLACEMENT_3D('',#608,#510,#511);
#445=AXIS2_PLACEMENT_3D('',#610,#512,#513);
#446=AXIS2_PLACEMENT_3D('',#611,#514,#515);
#447=AXIS2_PLACEMENT_3D('',#613,#516,#517);
#448=AXIS2_PLACEMENT_3D('',#615,#518,#519);
#449=AXIS2_PLACEMENT_3D('',#616,#520,#521);
#450=AXIS2_PLACEMENT_3D('',#618,#522,#523);
#451=AXIS2_PLACEMENT_3D('',#620,#524,#525);
#452=AXIS2_PLACEMENT_3D('',#621,#526,#527);
#453=AXIS2_PLACEMENT_3D('',#623,#528,#529);
#454=AXIS2_PLACEMENT_3D('',#625,#530,$);
#455=AXIS2_PLACEMENT_3D('',#626,#531,$);
#456=AXIS2_PLACEMENT_3D('',#627,#532,#533);
#457=AXIS2_PLACEMENT_3D('',#629,#534,#535);
#458=AXIS2_PLACEMENT_3D('',#630,#536,#537);
#459=AXIS2_PLACEMENT_3D('',#632,#538,#539);
#460=AXIS2_PLACEMENT_3D('',#634,#540,$);
#461=AXIS2_PLACEMENT_3D('',#635,#541,#542);
#462=AXIS2_PLACEMENT_3D('',#637,#543,#544);
#463=AXIS2_PLACEMENT_3D('',#638,#545,#546);
#464=AXIS2_PLACEMENT_3D('',#640,#547,#548);
#465=AXIS2_PLACEMENT_3D('',#641,#549,#550);
#466=AXIS2_PLACEMENT_3D('',#643,#551,#552);
#467=AXIS2_PLACEMENT_3D('',#645,#553,#554);
#468=AXIS2_PLACEMENT_3D('',#646,#555,#556);
#469=AXIS2_PLACEMENT_3D('',#648,#557,#558);
#470=AXIS2_PLACEMENT_3D('',#650,#559,$);
#471=AXIS2_PLACEMENT_3D('',#651,#560,#561);
#472=AXIS2_PLACEMENT_3D('',#652,#562,$);
#473=AXIS2_PLACEMENT_3D('',#653,#563,#564);
#474=AXIS2_PLACEMENT_3D('',#655,#565,#566);
#475=AXIS2_PLACEMENT_3D('',#656,#567,#568);
#476=AXIS2_PLACEMENT_3D('',#658,#569,$);
#477=AXIS2_PLACEMENT_3D('',#659,#570,#571);
#478=AXIS2_PLACEMENT_3D('',#661,#572,$);
#479=AXIS2_PLACEMENT_3D('',#662,#573,#574);
#480=AXIS2_PLACEMENT_3D('',#664,#575,#576);
#481=AXIS2_PLACEMENT_3D('',#666,#577,#578);
#482=AXIS2_PLACEMENT_3D('',#667,#579,#580);
#483=AXIS2_PLACEMENT_3D('',#669,#581,$);
#484=AXIS2_PLACEMENT_3D('',#670,#582,#583);
#485=AXIS2_PLACEMENT_3D('',#672,#584,#585);
#486=AXIS2_PLACEMENT_3D('',#673,#586,#587);
#487=AXIS2_PLACEMENT_3D('',#675,#588,#589);
#488=DIRECTION('',(0.,0.,1.));
#489=DIRECTION('',(0.695288237343632,-2.1398771616641,0.));
#490=DIRECTION('',(0.,0.,-1.));
#491=DIRECTION('',(0.695288237343632,-2.1398771616641,0.));
#492=DIRECTION('',(0.,0.,1.));
#493=DIRECTION('',(0.695288237343632,-2.1398771616641,0.));
#494=DIRECTION('',(0.,0.,1.));
#495=DIRECTION('',(-1.82028823734363,-1.32251681765806,0.));
#496=DIRECTION('',(0.,0.,-1.));
#497=DIRECTION('',(-1.82028823734363,-1.32251681765806,0.));
#498=DIRECTION('',(0.,0.,1.));
#499=DIRECTION('',(-1.82028823734363,-1.32251681765806,0.));
#500=DIRECTION('',(0.,0.,1.));
#501=DIRECTION('',(-1.82028823734363,1.32251681765807,0.));
#502=DIRECTION('',(0.,0.,-1.));
#503=DIRECTION('',(-1.82028823734363,1.32251681765807,0.));
#504=DIRECTION('',(0.,0.,1.));
#505=DIRECTION('',(-1.82028823734363,1.32251681765807,0.));
#506=DIRECTION('',(0.,0.,1.));
#507=DIRECTION('',(0.695288237343632,2.1398771616641,0.));
#508=DIRECTION('',(0.,0.,-1.));
#509=DIRECTION('',(0.695288237343632,2.1398771616641,0.));
#510=DIRECTION('',(0.,0.,1.));
#511=DIRECTION('',(0.695288237343632,2.1398771616641,0.));
#512=DIRECTION('',(0.,0.,1.));
#513=DIRECTION('',(2.25,0.,0.));
#514=DIRECTION('',(0.,0.,-1.));
#515=DIRECTION('',(2.25,0.,0.));
#516=DIRECTION('',(0.,0.,1.));
#517=DIRECTION('',(2.25,0.,0.));
#518=DIRECTION('',(0.,0.,1.));
#519=DIRECTION('',(0.,2.7,0.));
#520=DIRECTION('',(0.,0.,-1.));
#521=DIRECTION('',(0.,2.5,0.));
#522=DIRECTION('',(0.,0.,1.));
#523=DIRECTION('',(0.,2.9,0.));
#524=DIRECTION('',(0.,0.,-1.));
#525=DIRECTION('',(0.,10.7,0.));
#526=DIRECTION('',(0.,0.,1.));
#527=DIRECTION('',(0.,11.,0.));
#528=DIRECTION('',(0.,0.,1.));
#529=DIRECTION('',(0.,10.6,0.));
#530=DIRECTION('',(0.,0.,1.));
#531=DIRECTION('',(0.,0.,1.));
#532=DIRECTION('',(0.,0.,1.));
#533=DIRECTION('',(12.,0.,0.));
#534=DIRECTION('',(0.,0.,1.));
#535=DIRECTION('',(0.,11.526229924066,0.));
#536=DIRECTION('',(0.,0.,1.));
#537=DIRECTION('',(0.,11.052459848132,0.));
#538=DIRECTION('',(0.,0.,1.));
#539=DIRECTION('',(12.,0.,0.));
#540=DIRECTION('',(0.,0.,1.));
#541=DIRECTION('',(0.,0.,1.));
#542=DIRECTION('',(0.,11.052459848132,0.));
#543=DIRECTION('',(0.,0.,-1.));
#544=DIRECTION('',(0.,11.526229924066,0.));
#545=DIRECTION('',(0.,0.,-1.));
#546=DIRECTION('',(12.,0.,0.));
#547=DIRECTION('',(0.,0.,1.));
#548=DIRECTION('',(0.,10.9,0.));
#549=DIRECTION('',(0.,0.,1.));
#550=DIRECTION('',(0.,10.6,0.));
#551=DIRECTION('',(0.,0.,-1.));
#552=DIRECTION('',(0.,11.,0.));
#553=DIRECTION('',(0.,0.,-1.));
#554=DIRECTION('',(0.,2.7,0.));
#555=DIRECTION('',(0.,0.,1.));
#556=DIRECTION('',(0.,2.9,0.));
#557=DIRECTION('',(0.,0.,1.));
#558=DIRECTION('',(0.,2.5,0.));
#559=DIRECTION('',(0.,0.,-1.));
#560=DIRECTION('',(0.,0.,1.));
#561=DIRECTION('',(12.,0.,0.));
#562=DIRECTION('',(0.,0.,1.));
#563=DIRECTION('',(0.,0.,1.));
#564=DIRECTION('',(2.,0.,0.));
#565=DIRECTION('',(0.,0.,-1.));
#566=DIRECTION('',(2.,0.,0.));
#567=DIRECTION('',(0.,0.,-1.));
#568=DIRECTION('',(2.,0.,0.));
#569=DIRECTION('',(0.,0.,1.));
#570=DIRECTION('',(0.,0.,1.));
#571=DIRECTION('',(2.1,0.,0.));
#572=DIRECTION('',(0.,0.,-1.));
#573=DIRECTION('',(0.,0.,1.));
#574=DIRECTION('',(2.1,0.,0.));
#575=DIRECTION('',(0.,0.,1.));
#576=DIRECTION('',(0.,2.225,0.));
#577=DIRECTION('',(0.,0.,1.));
#578=DIRECTION('',(0.,2.225,0.));
#579=DIRECTION('',(0.,0.,1.));
#580=DIRECTION('',(0.,2.225,0.));
#581=DIRECTION('',(0.,0.,1.));
#582=DIRECTION('',(0.,0.,-1.));
#583=DIRECTION('',(2.1,0.,0.));
#584=DIRECTION('',(0.,0.,1.));
#585=DIRECTION('',(2.1,0.,0.));
#586=DIRECTION('',(0.,0.,-1.));
#587=DIRECTION('',(12.,0.,0.));
#588=DIRECTION('',(0.,0.,1.));
#589=DIRECTION('',(2.1,0.,0.));
#590=CARTESIAN_POINT('',(6.65739561406608,2.16311896062463,-32.7788169305525));
#591=CARTESIAN_POINT('',(6.65739561406608,2.16311896062463,1.2));
#592=CARTESIAN_POINT('',(5.96210737672244,4.30299612228873,1.2));
#593=CARTESIAN_POINT('',(6.65739561406608,2.16311896062463,0.399999999999999));
#594=CARTESIAN_POINT('',(5.96210737672244,4.30299612228873,0.399999999999999));
#595=CARTESIAN_POINT('',(4.11449676604731,-5.66311896062463,-32.7788169305525));
#596=CARTESIAN_POINT('',(4.11449676604731,-5.66311896062463,1.2));
#597=CARTESIAN_POINT('',(5.93478500339094,-4.34060214296657,1.2));
#598=CARTESIAN_POINT('',(4.11449676604731,-5.66311896062463,0.399999999999999));
#599=CARTESIAN_POINT('',(5.93478500339094,-4.34060214296657,0.399999999999999));
#600=CARTESIAN_POINT('',(-4.11449676604731,-5.66311896062463,-32.7788169305525));
#601=CARTESIAN_POINT('',(-4.11449676604731,-5.66311896062463,1.2));
#602=CARTESIAN_POINT('',(-2.29420852870368,-6.9856357782827,1.2));
#603=CARTESIAN_POINT('',(-4.11449676604731,-5.66311896062463,0.399999999999999));
#604=CARTESIAN_POINT('',(-2.29420852870368,-6.9856357782827,0.399999999999999));
#605=CARTESIAN_POINT('',(-6.65739561406608,2.16311896062463,-32.7788169305525));
#606=CARTESIAN_POINT('',(-6.65739561406608,2.16311896062463,1.2));
#607=CARTESIAN_POINT('',(-7.35268385140971,0.0232417989605366,1.2));
#608=CARTESIAN_POINT('',(-6.65739561406608,2.16311896062463,0.399999999999999));
#609=CARTESIAN_POINT('',(-7.35268385140971,0.0232417989605364,0.399999999999999));
#610=CARTESIAN_POINT('',(0.,7.,-32.7788169305525));
#611=CARTESIAN_POINT('',(0.,7.,1.2));
#612=CARTESIAN_POINT('',(-2.25,7.,1.2));
#613=CARTESIAN_POINT('',(0.,7.,0.399999999999999));
#614=CARTESIAN_POINT('',(-2.25,7.,0.399999999999999));
#615=CARTESIAN_POINT('',(0.,0.,0.2));
#616=CARTESIAN_POINT('',(0.,0.,0.));
#617=CARTESIAN_POINT('',(0.,2.5,0.));
#618=CARTESIAN_POINT('',(0.,0.,0.4));
#619=CARTESIAN_POINT('',(0.,2.9,0.4));
#620=CARTESIAN_POINT('',(0.,0.,0.300000000000005));
#621=CARTESIAN_POINT('',(0.,0.,0.));
#622=CARTESIAN_POINT('',(0.,11.,0.));
#623=CARTESIAN_POINT('',(0.,0.,0.4));
#624=CARTESIAN_POINT('',(0.,10.6,0.4));
#625=CARTESIAN_POINT('',(0.,6.75,0.4));
#626=CARTESIAN_POINT('',(0.,0.,0.));
#627=CARTESIAN_POINT('',(0.,0.,0.));
#628=CARTESIAN_POINT('',(12.,0.,0.));
#629=CARTESIAN_POINT('',(0.,0.,1.14398844723437));
#630=CARTESIAN_POINT('',(0.,0.,0.887976894468734));
#631=CARTESIAN_POINT('',(0.,11.052459848132,0.887976894468734));
#632=CARTESIAN_POINT('',(0.,0.,1.4));
#633=CARTESIAN_POINT('',(0.,12.,1.4));
#634=CARTESIAN_POINT('',(0.,0.,0.8));
#635=CARTESIAN_POINT('',(0.,0.,0.712023105531264));
#636=CARTESIAN_POINT('',(0.,11.052459848132,0.712023105531264));
#637=CARTESIAN_POINT('',(0.,0.,0.456011552765632));
#638=CARTESIAN_POINT('',(0.,0.,0.2));
#639=CARTESIAN_POINT('',(0.,12.,0.2));
#640=CARTESIAN_POINT('',(0.,0.,1.5));
#641=CARTESIAN_POINT('',(0.,0.,1.2));
#642=CARTESIAN_POINT('',(0.,10.6,1.2));
#643=CARTESIAN_POINT('',(0.,0.,1.6));
#644=CARTESIAN_POINT('',(0.,11.,1.6));
#645=CARTESIAN_POINT('',(0.,0.,1.4));
#646=CARTESIAN_POINT('',(0.,0.,1.2));
#647=CARTESIAN_POINT('',(0.,2.9,1.2));
#648=CARTESIAN_POINT('',(0.,0.,1.6));
#649=CARTESIAN_POINT('',(0.,2.5,1.6));
#650=CARTESIAN_POINT('',(0.,6.75,1.2));
#651=CARTESIAN_POINT('',(0.,0.,0.));
#652=CARTESIAN_POINT('',(0.,0.,1.6));
#653=CARTESIAN_POINT('',(0.,0.,1.6));
#654=CARTESIAN_POINT('',(2.,0.,1.6));
#655=CARTESIAN_POINT('',(0.,0.,1.6));
#656=CARTESIAN_POINT('',(0.,0.,1.475));
#657=CARTESIAN_POINT('',(2.,0.,1.475));
#658=CARTESIAN_POINT('',(0.,0.,1.475));
#659=CARTESIAN_POINT('',(0.,0.,1.475));
#660=CARTESIAN_POINT('',(2.1,0.,1.475));
#661=CARTESIAN_POINT('',(0.,2.09798406362534,0.1));
#662=CARTESIAN_POINT('',(0.,0.,0.1));
#663=CARTESIAN_POINT('',(-2.1,-2.57175827820944E-16,0.1));
#664=CARTESIAN_POINT('',(0.,0.,0.1));
#665=CARTESIAN_POINT('',(0.,2.225,0.1));
#666=CARTESIAN_POINT('',(0.,0.,0.1875));
#667=CARTESIAN_POINT('',(0.,0.,0.275));
#668=CARTESIAN_POINT('',(0.,2.225,0.275));
#669=CARTESIAN_POINT('',(0.,2.09798406362534,0.275));
#670=CARTESIAN_POINT('',(0.,0.,0.275));
#671=CARTESIAN_POINT('',(-2.1,2.57175827820944E-16,0.275));
#672=CARTESIAN_POINT('',(0.,0.,0.));
#673=CARTESIAN_POINT('',(0.,0.,1.6));
#674=CARTESIAN_POINT('',(12.,0.,1.6));
#675=CARTESIAN_POINT('',(0.,0.,0.));
#676=CARTESIAN_POINT('',(2.1,0.,0.));
#677=CYLINDRICAL_SURFACE('',#433,2.25);
#678=CYLINDRICAL_SURFACE('',#436,2.25);
#679=CYLINDRICAL_SURFACE('',#439,2.25);
#680=CYLINDRICAL_SURFACE('',#442,2.25);
#681=CYLINDRICAL_SURFACE('',#445,2.25);
#682=CYLINDRICAL_SURFACE('',#471,12.);
#683=CYLINDRICAL_SURFACE('',#474,2.);
#684=CYLINDRICAL_SURFACE('',#481,2.225);
#685=CYLINDRICAL_SURFACE('',#485,2.1);
#686=CLOSED_SHELL('',(#406,#407,#408,#409,#410,#411,#412,#413,#414,#415,
#416,#417,#418,#419,#420,#421,#422,#423,#424,#425,#426,#427,#428,#429,#430,
#431,#432));
#687=MANIFOLD_SOLID_BREP('',#686);
#688=ADVANCED_BREP_SHAPE_REPRESENTATION('',(#687),#103);
ENDSEC;
END-ISO-10303-21;
