ISO-10303-21;
HEADER;
/* Generated by software containing ST-Developer
 * from STEP Tools, Inc. (www.steptools.com) 
 */

FILE_DESCRIPTION(
/* description */ ('Hohlprofil'),
/* implementation_level */ '2;1');

FILE_NAME(
/* name */ 
'Q:\\G200033  -  HBPO EQM V1_V3 - BMW FAAR_WE\\08 Konstruktion\\05 Z31
9-00\\319-20-00 Montagelinie V3\\319-20-09 VL3-080\\319-20-09-29-02 Ho
hlprofil.stp',
/* time_stamp */ '2021-03-10T13:19:42+01:00',
/* author */ ('herr_rommel'),
/* organization */ (''),
/* preprocessor_version */ 'ST-DEVELOPER v17',
/* originating_system */ 'Autodesk Inventor 2018',
/* authorisation */ '');

FILE_SCHEMA (('AUTOMOTIVE_DESIGN { 1 0 10303 214 3 1 1 }'));
ENDSEC;

DATA;
#10=MECHANICAL_DESIGN_GEOMETRIC_PRESENTATION_REPRESENTATION('',(#13),#605);
#11=SHAPE_REPRESENTATION_RELATIONSHIP('SRR','None',#612,#12);
#12=ADVANCED_BREP_SHAPE_REPRESENTATION('',(#14),#604);
#13=STYLED_ITEM('',(#621),#14);
#14=MANIFOLD_SOLID_BREP('Solid1',#347);
#15=CIRCLE('',#377,1.);
#16=CIRCLE('',#379,1.);
#17=CIRCLE('',#382,1.);
#18=CIRCLE('',#384,1.);
#19=CIRCLE('',#387,1.);
#20=CIRCLE('',#390,1.);
#21=CIRCLE('',#393,1.);
#22=CIRCLE('',#397,1.);
#23=CYLINDRICAL_SURFACE('',#376,1.);
#24=CYLINDRICAL_SURFACE('',#378,1.);
#25=CYLINDRICAL_SURFACE('',#381,1.);
#26=CYLINDRICAL_SURFACE('',#383,1.);
#27=CYLINDRICAL_SURFACE('',#386,1.);
#28=CYLINDRICAL_SURFACE('',#389,1.);
#29=CYLINDRICAL_SURFACE('',#392,1.);
#30=CYLINDRICAL_SURFACE('',#396,1.);
#31=FACE_BOUND('',#52,.T.);
#32=FACE_BOUND('',#70,.T.);
#33=FACE_OUTER_BOUND('',#51,.T.);
#34=FACE_OUTER_BOUND('',#53,.T.);
#35=FACE_OUTER_BOUND('',#54,.T.);
#36=FACE_OUTER_BOUND('',#55,.T.);
#37=FACE_OUTER_BOUND('',#56,.T.);
#38=FACE_OUTER_BOUND('',#57,.T.);
#39=FACE_OUTER_BOUND('',#58,.T.);
#40=FACE_OUTER_BOUND('',#59,.T.);
#41=FACE_OUTER_BOUND('',#60,.T.);
#42=FACE_OUTER_BOUND('',#61,.T.);
#43=FACE_OUTER_BOUND('',#62,.T.);
#44=FACE_OUTER_BOUND('',#63,.T.);
#45=FACE_OUTER_BOUND('',#64,.T.);
#46=FACE_OUTER_BOUND('',#65,.T.);
#47=FACE_OUTER_BOUND('',#66,.T.);
#48=FACE_OUTER_BOUND('',#67,.T.);
#49=FACE_OUTER_BOUND('',#68,.T.);
#50=FACE_OUTER_BOUND('',#69,.T.);
#51=EDGE_LOOP('',(#223,#224,#225,#226,#227,#228,#229,#230));
#52=EDGE_LOOP('',(#231,#232,#233,#234,#235,#236,#237,#238));
#53=EDGE_LOOP('',(#239,#240,#241,#242));
#54=EDGE_LOOP('',(#243,#244,#245,#246));
#55=EDGE_LOOP('',(#247,#248,#249,#250));
#56=EDGE_LOOP('',(#251,#252,#253,#254));
#57=EDGE_LOOP('',(#255,#256,#257,#258));
#58=EDGE_LOOP('',(#259,#260,#261,#262));
#59=EDGE_LOOP('',(#263,#264,#265,#266));
#60=EDGE_LOOP('',(#267,#268,#269,#270));
#61=EDGE_LOOP('',(#271,#272,#273,#274));
#62=EDGE_LOOP('',(#275,#276,#277,#278));
#63=EDGE_LOOP('',(#279,#280,#281,#282));
#64=EDGE_LOOP('',(#283,#284,#285,#286));
#65=EDGE_LOOP('',(#287,#288,#289,#290));
#66=EDGE_LOOP('',(#291,#292,#293,#294));
#67=EDGE_LOOP('',(#295,#296,#297,#298));
#68=EDGE_LOOP('',(#299,#300,#301,#302));
#69=EDGE_LOOP('',(#303,#304,#305,#306,#307,#308,#309,#310));
#70=EDGE_LOOP('',(#311,#312,#313,#314,#315,#316,#317,#318));
#71=LINE('',#509,#103);
#72=LINE('',#513,#104);
#73=LINE('',#517,#105);
#74=LINE('',#520,#106);
#75=LINE('',#525,#107);
#76=LINE('',#529,#108);
#77=LINE('',#533,#109);
#78=LINE('',#536,#110);
#79=LINE('',#539,#111);
#80=LINE('',#542,#112);
#81=LINE('',#545,#113);
#82=LINE('',#548,#114);
#83=LINE('',#551,#115);
#84=LINE('',#552,#116);
#85=LINE('',#555,#117);
#86=LINE('',#559,#118);
#87=LINE('',#562,#119);
#88=LINE('',#565,#120);
#89=LINE('',#566,#121);
#90=LINE('',#569,#122);
#91=LINE('',#573,#123);
#92=LINE('',#574,#124);
#93=LINE('',#577,#125);
#94=LINE('',#581,#126);
#95=LINE('',#582,#127);
#96=LINE('',#585,#128);
#97=LINE('',#588,#129);
#98=LINE('',#591,#130);
#99=LINE('',#592,#131);
#100=LINE('',#595,#132);
#101=LINE('',#598,#133);
#102=LINE('',#600,#134);
#103=VECTOR('',#407,10.);
#104=VECTOR('',#410,10.);
#105=VECTOR('',#413,10.);
#106=VECTOR('',#416,10.);
#107=VECTOR('',#419,10.);
#108=VECTOR('',#422,10.);
#109=VECTOR('',#425,10.);
#110=VECTOR('',#428,10.);
#111=VECTOR('',#431,10.);
#112=VECTOR('',#434,10.);
#113=VECTOR('',#437,10.);
#114=VECTOR('',#440,10.);
#115=VECTOR('',#443,10.);
#116=VECTOR('',#444,10.);
#117=VECTOR('',#447,10.);
#118=VECTOR('',#452,10.);
#119=VECTOR('',#455,10.);
#120=VECTOR('',#458,10.);
#121=VECTOR('',#459,10.);
#122=VECTOR('',#462,10.);
#123=VECTOR('',#467,10.);
#124=VECTOR('',#468,10.);
#125=VECTOR('',#471,10.);
#126=VECTOR('',#476,10.);
#127=VECTOR('',#477,10.);
#128=VECTOR('',#480,10.);
#129=VECTOR('',#485,10.);
#130=VECTOR('',#488,10.);
#131=VECTOR('',#489,10.);
#132=VECTOR('',#492,10.);
#133=VECTOR('',#497,10.);
#134=VECTOR('',#500,10.);
#135=ELLIPSE('',#368,1.03527618041008,1.);
#136=ELLIPSE('',#369,1.03527618041008,1.);
#137=ELLIPSE('',#370,1.03527618041008,1.);
#138=ELLIPSE('',#371,1.03527618041008,1.);
#139=ELLIPSE('',#372,1.03527618041008,1.);
#140=ELLIPSE('',#373,1.03527618041008,1.);
#141=ELLIPSE('',#374,1.03527618041008,1.);
#142=ELLIPSE('',#375,1.03527618041008,1.);
#143=VERTEX_POINT('',#505);
#144=VERTEX_POINT('',#506);
#145=VERTEX_POINT('',#508);
#146=VERTEX_POINT('',#510);
#147=VERTEX_POINT('',#512);
#148=VERTEX_POINT('',#514);
#149=VERTEX_POINT('',#516);
#150=VERTEX_POINT('',#518);
#151=VERTEX_POINT('',#521);
#152=VERTEX_POINT('',#522);
#153=VERTEX_POINT('',#524);
#154=VERTEX_POINT('',#526);
#155=VERTEX_POINT('',#528);
#156=VERTEX_POINT('',#530);
#157=VERTEX_POINT('',#532);
#158=VERTEX_POINT('',#534);
#159=VERTEX_POINT('',#538);
#160=VERTEX_POINT('',#540);
#161=VERTEX_POINT('',#544);
#162=VERTEX_POINT('',#546);
#163=VERTEX_POINT('',#550);
#164=VERTEX_POINT('',#554);
#165=VERTEX_POINT('',#558);
#166=VERTEX_POINT('',#560);
#167=VERTEX_POINT('',#564);
#168=VERTEX_POINT('',#568);
#169=VERTEX_POINT('',#572);
#170=VERTEX_POINT('',#576);
#171=VERTEX_POINT('',#580);
#172=VERTEX_POINT('',#584);
#173=VERTEX_POINT('',#590);
#174=VERTEX_POINT('',#594);
#175=EDGE_CURVE('',#143,#144,#135,.T.);
#176=EDGE_CURVE('',#145,#143,#71,.T.);
#177=EDGE_CURVE('',#146,#145,#136,.T.);
#178=EDGE_CURVE('',#147,#146,#72,.T.);
#179=EDGE_CURVE('',#148,#147,#137,.T.);
#180=EDGE_CURVE('',#149,#148,#73,.T.);
#181=EDGE_CURVE('',#150,#149,#138,.T.);
#182=EDGE_CURVE('',#144,#150,#74,.T.);
#183=EDGE_CURVE('',#151,#152,#139,.T.);
#184=EDGE_CURVE('',#153,#151,#75,.T.);
#185=EDGE_CURVE('',#154,#153,#140,.T.);
#186=EDGE_CURVE('',#155,#154,#76,.T.);
#187=EDGE_CURVE('',#156,#155,#141,.T.);
#188=EDGE_CURVE('',#157,#156,#77,.T.);
#189=EDGE_CURVE('',#158,#157,#142,.T.);
#190=EDGE_CURVE('',#152,#158,#78,.T.);
#191=EDGE_CURVE('',#159,#145,#79,.T.);
#192=EDGE_CURVE('',#160,#159,#15,.T.);
#193=EDGE_CURVE('',#160,#146,#80,.T.);
#194=EDGE_CURVE('',#161,#144,#81,.T.);
#195=EDGE_CURVE('',#162,#161,#16,.T.);
#196=EDGE_CURVE('',#162,#143,#82,.T.);
#197=EDGE_CURVE('',#163,#150,#83,.T.);
#198=EDGE_CURVE('',#161,#163,#84,.T.);
#199=EDGE_CURVE('',#164,#149,#85,.T.);
#200=EDGE_CURVE('',#163,#164,#17,.T.);
#201=EDGE_CURVE('',#165,#155,#86,.T.);
#202=EDGE_CURVE('',#166,#165,#18,.T.);
#203=EDGE_CURVE('',#166,#156,#87,.T.);
#204=EDGE_CURVE('',#167,#154,#88,.T.);
#205=EDGE_CURVE('',#165,#167,#89,.T.);
#206=EDGE_CURVE('',#168,#153,#90,.T.);
#207=EDGE_CURVE('',#167,#168,#19,.T.);
#208=EDGE_CURVE('',#169,#151,#91,.T.);
#209=EDGE_CURVE('',#168,#169,#92,.T.);
#210=EDGE_CURVE('',#170,#152,#93,.T.);
#211=EDGE_CURVE('',#169,#170,#20,.T.);
#212=EDGE_CURVE('',#171,#158,#94,.T.);
#213=EDGE_CURVE('',#170,#171,#95,.T.);
#214=EDGE_CURVE('',#172,#157,#96,.T.);
#215=EDGE_CURVE('',#171,#172,#21,.T.);
#216=EDGE_CURVE('',#172,#166,#97,.T.);
#217=EDGE_CURVE('',#173,#148,#98,.T.);
#218=EDGE_CURVE('',#164,#173,#99,.T.);
#219=EDGE_CURVE('',#174,#147,#100,.T.);
#220=EDGE_CURVE('',#173,#174,#22,.T.);
#221=EDGE_CURVE('',#174,#160,#101,.T.);
#222=EDGE_CURVE('',#159,#162,#102,.T.);
#223=ORIENTED_EDGE('',*,*,#175,.F.);
#224=ORIENTED_EDGE('',*,*,#176,.F.);
#225=ORIENTED_EDGE('',*,*,#177,.F.);
#226=ORIENTED_EDGE('',*,*,#178,.F.);
#227=ORIENTED_EDGE('',*,*,#179,.F.);
#228=ORIENTED_EDGE('',*,*,#180,.F.);
#229=ORIENTED_EDGE('',*,*,#181,.F.);
#230=ORIENTED_EDGE('',*,*,#182,.F.);
#231=ORIENTED_EDGE('',*,*,#183,.F.);
#232=ORIENTED_EDGE('',*,*,#184,.F.);
#233=ORIENTED_EDGE('',*,*,#185,.F.);
#234=ORIENTED_EDGE('',*,*,#186,.F.);
#235=ORIENTED_EDGE('',*,*,#187,.F.);
#236=ORIENTED_EDGE('',*,*,#188,.F.);
#237=ORIENTED_EDGE('',*,*,#189,.F.);
#238=ORIENTED_EDGE('',*,*,#190,.F.);
#239=ORIENTED_EDGE('',*,*,#177,.T.);
#240=ORIENTED_EDGE('',*,*,#191,.F.);
#241=ORIENTED_EDGE('',*,*,#192,.F.);
#242=ORIENTED_EDGE('',*,*,#193,.T.);
#243=ORIENTED_EDGE('',*,*,#175,.T.);
#244=ORIENTED_EDGE('',*,*,#194,.F.);
#245=ORIENTED_EDGE('',*,*,#195,.F.);
#246=ORIENTED_EDGE('',*,*,#196,.T.);
#247=ORIENTED_EDGE('',*,*,#182,.T.);
#248=ORIENTED_EDGE('',*,*,#197,.F.);
#249=ORIENTED_EDGE('',*,*,#198,.F.);
#250=ORIENTED_EDGE('',*,*,#194,.T.);
#251=ORIENTED_EDGE('',*,*,#181,.T.);
#252=ORIENTED_EDGE('',*,*,#199,.F.);
#253=ORIENTED_EDGE('',*,*,#200,.F.);
#254=ORIENTED_EDGE('',*,*,#197,.T.);
#255=ORIENTED_EDGE('',*,*,#187,.T.);
#256=ORIENTED_EDGE('',*,*,#201,.F.);
#257=ORIENTED_EDGE('',*,*,#202,.F.);
#258=ORIENTED_EDGE('',*,*,#203,.T.);
#259=ORIENTED_EDGE('',*,*,#186,.T.);
#260=ORIENTED_EDGE('',*,*,#204,.F.);
#261=ORIENTED_EDGE('',*,*,#205,.F.);
#262=ORIENTED_EDGE('',*,*,#201,.T.);
#263=ORIENTED_EDGE('',*,*,#185,.T.);
#264=ORIENTED_EDGE('',*,*,#206,.F.);
#265=ORIENTED_EDGE('',*,*,#207,.F.);
#266=ORIENTED_EDGE('',*,*,#204,.T.);
#267=ORIENTED_EDGE('',*,*,#184,.T.);
#268=ORIENTED_EDGE('',*,*,#208,.F.);
#269=ORIENTED_EDGE('',*,*,#209,.F.);
#270=ORIENTED_EDGE('',*,*,#206,.T.);
#271=ORIENTED_EDGE('',*,*,#183,.T.);
#272=ORIENTED_EDGE('',*,*,#210,.F.);
#273=ORIENTED_EDGE('',*,*,#211,.F.);
#274=ORIENTED_EDGE('',*,*,#208,.T.);
#275=ORIENTED_EDGE('',*,*,#190,.T.);
#276=ORIENTED_EDGE('',*,*,#212,.F.);
#277=ORIENTED_EDGE('',*,*,#213,.F.);
#278=ORIENTED_EDGE('',*,*,#210,.T.);
#279=ORIENTED_EDGE('',*,*,#189,.T.);
#280=ORIENTED_EDGE('',*,*,#214,.F.);
#281=ORIENTED_EDGE('',*,*,#215,.F.);
#282=ORIENTED_EDGE('',*,*,#212,.T.);
#283=ORIENTED_EDGE('',*,*,#188,.T.);
#284=ORIENTED_EDGE('',*,*,#203,.F.);
#285=ORIENTED_EDGE('',*,*,#216,.F.);
#286=ORIENTED_EDGE('',*,*,#214,.T.);
#287=ORIENTED_EDGE('',*,*,#180,.T.);
#288=ORIENTED_EDGE('',*,*,#217,.F.);
#289=ORIENTED_EDGE('',*,*,#218,.F.);
#290=ORIENTED_EDGE('',*,*,#199,.T.);
#291=ORIENTED_EDGE('',*,*,#179,.T.);
#292=ORIENTED_EDGE('',*,*,#219,.F.);
#293=ORIENTED_EDGE('',*,*,#220,.F.);
#294=ORIENTED_EDGE('',*,*,#217,.T.);
#295=ORIENTED_EDGE('',*,*,#178,.T.);
#296=ORIENTED_EDGE('',*,*,#193,.F.);
#297=ORIENTED_EDGE('',*,*,#221,.F.);
#298=ORIENTED_EDGE('',*,*,#219,.T.);
#299=ORIENTED_EDGE('',*,*,#176,.T.);
#300=ORIENTED_EDGE('',*,*,#196,.F.);
#301=ORIENTED_EDGE('',*,*,#222,.F.);
#302=ORIENTED_EDGE('',*,*,#191,.T.);
#303=ORIENTED_EDGE('',*,*,#222,.T.);
#304=ORIENTED_EDGE('',*,*,#195,.T.);
#305=ORIENTED_EDGE('',*,*,#198,.T.);
#306=ORIENTED_EDGE('',*,*,#200,.T.);
#307=ORIENTED_EDGE('',*,*,#218,.T.);
#308=ORIENTED_EDGE('',*,*,#220,.T.);
#309=ORIENTED_EDGE('',*,*,#221,.T.);
#310=ORIENTED_EDGE('',*,*,#192,.T.);
#311=ORIENTED_EDGE('',*,*,#202,.T.);
#312=ORIENTED_EDGE('',*,*,#205,.T.);
#313=ORIENTED_EDGE('',*,*,#207,.T.);
#314=ORIENTED_EDGE('',*,*,#209,.T.);
#315=ORIENTED_EDGE('',*,*,#211,.T.);
#316=ORIENTED_EDGE('',*,*,#213,.T.);
#317=ORIENTED_EDGE('',*,*,#215,.T.);
#318=ORIENTED_EDGE('',*,*,#216,.T.);
#319=PLANE('',#367);
#320=PLANE('',#380);
#321=PLANE('',#385);
#322=PLANE('',#388);
#323=PLANE('',#391);
#324=PLANE('',#394);
#325=PLANE('',#395);
#326=PLANE('',#398);
#327=PLANE('',#399);
#328=PLANE('',#400);
#329=ADVANCED_FACE('',(#33,#31),#319,.F.);
#330=ADVANCED_FACE('',(#34),#23,.T.);
#331=ADVANCED_FACE('',(#35),#24,.T.);
#332=ADVANCED_FACE('',(#36),#320,.T.);
#333=ADVANCED_FACE('',(#37),#25,.T.);
#334=ADVANCED_FACE('',(#38),#26,.F.);
#335=ADVANCED_FACE('',(#39),#321,.F.);
#336=ADVANCED_FACE('',(#40),#27,.F.);
#337=ADVANCED_FACE('',(#41),#322,.F.);
#338=ADVANCED_FACE('',(#42),#28,.F.);
#339=ADVANCED_FACE('',(#43),#323,.F.);
#340=ADVANCED_FACE('',(#44),#29,.F.);
#341=ADVANCED_FACE('',(#45),#324,.F.);
#342=ADVANCED_FACE('',(#46),#325,.T.);
#343=ADVANCED_FACE('',(#47),#30,.T.);
#344=ADVANCED_FACE('',(#48),#326,.T.);
#345=ADVANCED_FACE('',(#49),#327,.T.);
#346=ADVANCED_FACE('',(#50,#32),#328,.F.);
#347=CLOSED_SHELL('',(#329,#330,#331,#332,#333,#334,#335,#336,#337,#338,
#339,#340,#341,#342,#343,#344,#345,#346));
#348=DERIVED_UNIT_ELEMENT(#350,1.);
#349=DERIVED_UNIT_ELEMENT(#607,3.);
#350=(
MASS_UNIT()
NAMED_UNIT(*)
SI_UNIT($,.GRAM.)
);
#351=DERIVED_UNIT((#348,#349));
#352=MEASURE_REPRESENTATION_ITEM('density measure',
POSITIVE_RATIO_MEASURE(2.7),#351);
#353=PROPERTY_DEFINITION_REPRESENTATION(#358,#355);
#354=PROPERTY_DEFINITION_REPRESENTATION(#359,#356);
#355=REPRESENTATION('material name',(#357),#604);
#356=REPRESENTATION('density',(#352),#604);
#357=DESCRIPTIVE_REPRESENTATION_ITEM('AlMgSi1','AlMgSi1');
#358=PROPERTY_DEFINITION('material property','material name',#614);
#359=PROPERTY_DEFINITION('material property','density of part',#614);
#360=DATE_TIME_ROLE('creation_date');
#361=APPLIED_DATE_AND_TIME_ASSIGNMENT(#362,#360,(#614));
#362=DATE_AND_TIME(#363,#364);
#363=CALENDAR_DATE(2020,17,9);
#364=LOCAL_TIME(14,37,49.,#365);
#365=COORDINATED_UNIVERSAL_TIME_OFFSET(0,0,.BEHIND.);
#366=AXIS2_PLACEMENT_3D('placement',#503,#401,#402);
#367=AXIS2_PLACEMENT_3D('',#504,#403,#404);
#368=AXIS2_PLACEMENT_3D('',#507,#405,#406);
#369=AXIS2_PLACEMENT_3D('',#511,#408,#409);
#370=AXIS2_PLACEMENT_3D('',#515,#411,#412);
#371=AXIS2_PLACEMENT_3D('',#519,#414,#415);
#372=AXIS2_PLACEMENT_3D('',#523,#417,#418);
#373=AXIS2_PLACEMENT_3D('',#527,#420,#421);
#374=AXIS2_PLACEMENT_3D('',#531,#423,#424);
#375=AXIS2_PLACEMENT_3D('',#535,#426,#427);
#376=AXIS2_PLACEMENT_3D('',#537,#429,#430);
#377=AXIS2_PLACEMENT_3D('',#541,#432,#433);
#378=AXIS2_PLACEMENT_3D('',#543,#435,#436);
#379=AXIS2_PLACEMENT_3D('',#547,#438,#439);
#380=AXIS2_PLACEMENT_3D('',#549,#441,#442);
#381=AXIS2_PLACEMENT_3D('',#553,#445,#446);
#382=AXIS2_PLACEMENT_3D('',#556,#448,#449);
#383=AXIS2_PLACEMENT_3D('',#557,#450,#451);
#384=AXIS2_PLACEMENT_3D('',#561,#453,#454);
#385=AXIS2_PLACEMENT_3D('',#563,#456,#457);
#386=AXIS2_PLACEMENT_3D('',#567,#460,#461);
#387=AXIS2_PLACEMENT_3D('',#570,#463,#464);
#388=AXIS2_PLACEMENT_3D('',#571,#465,#466);
#389=AXIS2_PLACEMENT_3D('',#575,#469,#470);
#390=AXIS2_PLACEMENT_3D('',#578,#472,#473);
#391=AXIS2_PLACEMENT_3D('',#579,#474,#475);
#392=AXIS2_PLACEMENT_3D('',#583,#478,#479);
#393=AXIS2_PLACEMENT_3D('',#586,#481,#482);
#394=AXIS2_PLACEMENT_3D('',#587,#483,#484);
#395=AXIS2_PLACEMENT_3D('',#589,#486,#487);
#396=AXIS2_PLACEMENT_3D('',#593,#490,#491);
#397=AXIS2_PLACEMENT_3D('',#596,#493,#494);
#398=AXIS2_PLACEMENT_3D('',#597,#495,#496);
#399=AXIS2_PLACEMENT_3D('',#599,#498,#499);
#400=AXIS2_PLACEMENT_3D('',#601,#501,#502);
#401=DIRECTION('axis',(0.,0.,1.));
#402=DIRECTION('refdir',(1.,0.,0.));
#403=DIRECTION('center_axis',(-0.258819045102521,-1.81986346620067E-16,
-0.965925826289068));
#404=DIRECTION('ref_axis',(0.965925826289068,6.77300900479707E-16,-0.258819045102521));
#405=DIRECTION('center_axis',(-0.258819045102521,-1.81986346620067E-16,
-0.965925826289068));
#406=DIRECTION('ref_axis',(0.965925826289068,0.,-0.258819045102521));
#407=DIRECTION('',(-7.40148683083438E-16,1.,0.));
#408=DIRECTION('center_axis',(-0.258819045102521,-1.81986346620067E-16,
-0.965925826289068));
#409=DIRECTION('ref_axis',(0.965925826289068,0.,-0.258819045102521));
#410=DIRECTION('',(-0.965925826289068,0.,0.258819045102521));
#411=DIRECTION('center_axis',(-0.258819045102521,-1.81986346620067E-16,
-0.965925826289068));
#412=DIRECTION('ref_axis',(-0.965925826289068,0.,0.258819045102521));
#413=DIRECTION('',(-2.84672570416707E-17,-1.,1.96033908350653E-16));
#414=DIRECTION('center_axis',(-0.258819045102521,-1.81986346620067E-16,
-0.965925826289068));
#415=DIRECTION('ref_axis',(-0.965925826289068,0.,0.258819045102521));
#416=DIRECTION('',(0.965925826289068,6.77300900479707E-16,-0.258819045102521));
#417=DIRECTION('center_axis',(0.258819045102521,1.81986346620067E-16,0.965925826289068));
#418=DIRECTION('ref_axis',(0.965925826289068,0.,-0.258819045102521));
#419=DIRECTION('',(0.,1.,-1.88406129815608E-16));
#420=DIRECTION('center_axis',(0.258819045102521,1.81986346620067E-16,0.965925826289068));
#421=DIRECTION('ref_axis',(0.965925826289068,0.,-0.258819045102521));
#422=DIRECTION('',(0.965925826289068,0.,-0.258819045102521));
#423=DIRECTION('center_axis',(0.258819045102521,1.81986346620067E-16,0.965925826289068));
#424=DIRECTION('ref_axis',(-0.965925826289068,0.,0.258819045102521));
#425=DIRECTION('',(0.,-1.,1.88406129815608E-16));
#426=DIRECTION('center_axis',(0.258819045102521,1.81986346620067E-16,0.965925826289068));
#427=DIRECTION('ref_axis',(-0.965925826289068,0.,0.258819045102521));
#428=DIRECTION('',(-0.965925826289068,0.,0.258819045102521));
#429=DIRECTION('center_axis',(0.,0.,1.));
#430=DIRECTION('ref_axis',(1.,0.,0.));
#431=DIRECTION('',(0.,0.,1.));
#432=DIRECTION('center_axis',(0.,0.,-1.));
#433=DIRECTION('ref_axis',(1.,0.,0.));
#434=DIRECTION('',(0.,0.,1.));
#435=DIRECTION('center_axis',(0.,0.,1.));
#436=DIRECTION('ref_axis',(0.,-1.,0.));
#437=DIRECTION('',(0.,0.,1.));
#438=DIRECTION('center_axis',(0.,0.,-1.));
#439=DIRECTION('ref_axis',(0.,-1.,0.));
#440=DIRECTION('',(0.,0.,1.));
#441=DIRECTION('center_axis',(-7.01193489236941E-16,1.,0.));
#442=DIRECTION('ref_axis',(0.,0.,1.));
#443=DIRECTION('',(0.,0.,1.));
#444=DIRECTION('',(1.,7.01193489236941E-16,0.));
#445=DIRECTION('center_axis',(0.,0.,1.));
#446=DIRECTION('ref_axis',(-1.,0.,0.));
#447=DIRECTION('',(0.,0.,1.));
#448=DIRECTION('center_axis',(0.,0.,-1.));
#449=DIRECTION('ref_axis',(-1.,0.,0.));
#450=DIRECTION('center_axis',(0.,0.,1.));
#451=DIRECTION('ref_axis',(-1.,0.,0.));
#452=DIRECTION('',(0.,0.,1.));
#453=DIRECTION('center_axis',(0.,0.,1.));
#454=DIRECTION('ref_axis',(-1.,0.,0.));
#455=DIRECTION('',(0.,0.,1.));
#456=DIRECTION('center_axis',(0.,-1.,0.));
#457=DIRECTION('ref_axis',(0.,0.,-1.));
#458=DIRECTION('',(0.,0.,1.));
#459=DIRECTION('',(1.,0.,0.));
#460=DIRECTION('center_axis',(0.,0.,1.));
#461=DIRECTION('ref_axis',(0.,-1.,0.));
#462=DIRECTION('',(0.,0.,1.));
#463=DIRECTION('center_axis',(0.,0.,1.));
#464=DIRECTION('ref_axis',(0.,-1.,0.));
#465=DIRECTION('center_axis',(1.,0.,0.));
#466=DIRECTION('ref_axis',(0.,0.,-1.));
#467=DIRECTION('',(0.,0.,1.));
#468=DIRECTION('',(0.,1.,0.));
#469=DIRECTION('center_axis',(0.,0.,1.));
#470=DIRECTION('ref_axis',(1.,0.,0.));
#471=DIRECTION('',(0.,0.,1.));
#472=DIRECTION('center_axis',(0.,0.,1.));
#473=DIRECTION('ref_axis',(1.,0.,0.));
#474=DIRECTION('center_axis',(0.,1.,0.));
#475=DIRECTION('ref_axis',(0.,0.,1.));
#476=DIRECTION('',(0.,0.,1.));
#477=DIRECTION('',(-1.,0.,0.));
#478=DIRECTION('center_axis',(0.,0.,1.));
#479=DIRECTION('ref_axis',(0.,1.,0.));
#480=DIRECTION('',(0.,0.,1.));
#481=DIRECTION('center_axis',(0.,0.,1.));
#482=DIRECTION('ref_axis',(0.,1.,0.));
#483=DIRECTION('center_axis',(-1.,0.,0.));
#484=DIRECTION('ref_axis',(0.,0.,1.));
#485=DIRECTION('',(0.,-1.,0.));
#486=DIRECTION('center_axis',(1.,-2.84672570416707E-17,0.));
#487=DIRECTION('ref_axis',(0.,0.,-1.));
#488=DIRECTION('',(0.,0.,1.));
#489=DIRECTION('',(-2.84672570416707E-17,-1.,0.));
#490=DIRECTION('center_axis',(0.,0.,1.));
#491=DIRECTION('ref_axis',(0.,1.,0.));
#492=DIRECTION('',(0.,0.,1.));
#493=DIRECTION('center_axis',(0.,0.,-1.));
#494=DIRECTION('ref_axis',(0.,1.,0.));
#495=DIRECTION('center_axis',(0.,-1.,0.));
#496=DIRECTION('ref_axis',(0.,0.,-1.));
#497=DIRECTION('',(-1.,0.,0.));
#498=DIRECTION('center_axis',(-1.,-7.40148683083438E-16,0.));
#499=DIRECTION('ref_axis',(0.,0.,1.));
#500=DIRECTION('',(-7.40148683083438E-16,1.,0.));
#501=DIRECTION('center_axis',(0.,0.,1.));
#502=DIRECTION('ref_axis',(1.,0.,0.));
#503=CARTESIAN_POINT('',(0.,0.,0.));
#504=CARTESIAN_POINT('Origin',(-20.,40.,280.));
#505=CARTESIAN_POINT('',(-20.,39.,280.));
#506=CARTESIAN_POINT('',(-19.,40.,279.732050807569));
#507=CARTESIAN_POINT('Origin',(-19.,39.,279.732050807569));
#508=CARTESIAN_POINT('',(-20.,-39.,280.));
#509=CARTESIAN_POINT('',(-20.,-19.5,280.));
#510=CARTESIAN_POINT('',(-19.,-40.,279.732050807569));
#511=CARTESIAN_POINT('Origin',(-19.,-39.,279.732050807569));
#512=CARTESIAN_POINT('',(19.,-40.,269.549981495186));
#513=CARTESIAN_POINT('',(33.1937476868983,-40.,265.746778264911));
#514=CARTESIAN_POINT('',(20.0000000000001,-39.,269.282032302755));
#515=CARTESIAN_POINT('Origin',(19.,-39.,269.549981495186));
#516=CARTESIAN_POINT('',(20.,39.,269.282032302755));
#517=CARTESIAN_POINT('',(20.,39.5,269.282032302755));
#518=CARTESIAN_POINT('',(19.,40.,269.549981495186));
#519=CARTESIAN_POINT('Origin',(19.,39.,269.549981495186));
#520=CARTESIAN_POINT('',(15.4665063509461,40.,270.496778264911));
#521=CARTESIAN_POINT('',(16.,35.,270.35382907248));
#522=CARTESIAN_POINT('',(15.,36.,270.621778264911));
#523=CARTESIAN_POINT('Origin',(15.,35.,270.621778264911));
#524=CARTESIAN_POINT('',(16.,-35.,270.35382907248));
#525=CARTESIAN_POINT('',(16.,37.5,270.35382907248));
#526=CARTESIAN_POINT('',(15.,-36.,270.621778264911));
#527=CARTESIAN_POINT('Origin',(15.,-35.,270.621778264911));
#528=CARTESIAN_POINT('',(-15.,-36.,278.660254037844));
#529=CARTESIAN_POINT('',(31.3277222831139,-36.,266.246778264911));
#530=CARTESIAN_POINT('',(-16.,-35.,278.928203230276));
#531=CARTESIAN_POINT('Origin',(-15.,-35.,278.660254037844));
#532=CARTESIAN_POINT('',(-16.,35.,278.928203230275));
#533=CARTESIAN_POINT('',(-16.,2.50000000000002,278.928203230275));
#534=CARTESIAN_POINT('',(-15.,36.,278.660254037844));
#535=CARTESIAN_POINT('Origin',(-15.,35.,278.660254037844));
#536=CARTESIAN_POINT('',(17.3325317547306,36.,269.996778264911));
#537=CARTESIAN_POINT('Origin',(-19.,-39.,0.));
#538=CARTESIAN_POINT('',(-20.,-39.,0.));
#539=CARTESIAN_POINT('',(-20.,-39.,0.));
#540=CARTESIAN_POINT('',(-19.,-40.,0.));
#541=CARTESIAN_POINT('Origin',(-19.,-39.,0.));
#542=CARTESIAN_POINT('',(-19.,-40.,0.));
#543=CARTESIAN_POINT('Origin',(-19.,39.,0.));
#544=CARTESIAN_POINT('',(-19.,40.,0.));
#545=CARTESIAN_POINT('',(-19.,40.,0.));
#546=CARTESIAN_POINT('',(-20.,39.,0.));
#547=CARTESIAN_POINT('Origin',(-19.,39.,0.));
#548=CARTESIAN_POINT('',(-20.,39.,0.));
#549=CARTESIAN_POINT('Origin',(-19.,40.,0.));
#550=CARTESIAN_POINT('',(19.,40.,0.));
#551=CARTESIAN_POINT('',(19.,40.,0.));
#552=CARTESIAN_POINT('',(-9.50000000000002,40.,0.));
#553=CARTESIAN_POINT('Origin',(19.,39.,0.));
#554=CARTESIAN_POINT('',(20.,39.,0.));
#555=CARTESIAN_POINT('',(20.,39.,0.));
#556=CARTESIAN_POINT('Origin',(19.,39.,0.));
#557=CARTESIAN_POINT('Origin',(-15.,-35.,0.));
#558=CARTESIAN_POINT('',(-15.,-36.,0.));
#559=CARTESIAN_POINT('',(-15.,-36.,0.));
#560=CARTESIAN_POINT('',(-16.,-35.,0.));
#561=CARTESIAN_POINT('Origin',(-15.,-35.,0.));
#562=CARTESIAN_POINT('',(-16.,-35.,0.));
#563=CARTESIAN_POINT('Origin',(15.,-36.,0.));
#564=CARTESIAN_POINT('',(15.,-36.,0.));
#565=CARTESIAN_POINT('',(15.,-36.,0.));
#566=CARTESIAN_POINT('',(7.49999999999999,-36.,0.));
#567=CARTESIAN_POINT('Origin',(15.,-35.,0.));
#568=CARTESIAN_POINT('',(16.,-35.,0.));
#569=CARTESIAN_POINT('',(16.,-35.,0.));
#570=CARTESIAN_POINT('Origin',(15.,-35.,0.));
#571=CARTESIAN_POINT('Origin',(16.,35.,0.));
#572=CARTESIAN_POINT('',(16.,35.,0.));
#573=CARTESIAN_POINT('',(16.,35.,0.));
#574=CARTESIAN_POINT('',(16.,17.5,0.));
#575=CARTESIAN_POINT('Origin',(15.,35.,0.));
#576=CARTESIAN_POINT('',(15.,36.,0.));
#577=CARTESIAN_POINT('',(15.,36.,0.));
#578=CARTESIAN_POINT('Origin',(15.,35.,0.));
#579=CARTESIAN_POINT('Origin',(-15.,36.,0.));
#580=CARTESIAN_POINT('',(-15.,36.,0.));
#581=CARTESIAN_POINT('',(-15.,36.,0.));
#582=CARTESIAN_POINT('',(-7.5,36.,0.));
#583=CARTESIAN_POINT('Origin',(-15.,35.,0.));
#584=CARTESIAN_POINT('',(-16.,35.,0.));
#585=CARTESIAN_POINT('',(-16.,35.,0.));
#586=CARTESIAN_POINT('Origin',(-15.,35.,0.));
#587=CARTESIAN_POINT('Origin',(-16.,-35.,0.));
#588=CARTESIAN_POINT('',(-16.,-17.5,0.));
#589=CARTESIAN_POINT('Origin',(20.,39.,0.));
#590=CARTESIAN_POINT('',(20.,-39.,0.));
#591=CARTESIAN_POINT('',(20.,-39.,0.));
#592=CARTESIAN_POINT('',(20.,19.5,0.));
#593=CARTESIAN_POINT('Origin',(19.,-39.,0.));
#594=CARTESIAN_POINT('',(19.,-40.,0.));
#595=CARTESIAN_POINT('',(19.,-40.,0.));
#596=CARTESIAN_POINT('Origin',(19.,-39.,0.));
#597=CARTESIAN_POINT('Origin',(19.,-40.,0.));
#598=CARTESIAN_POINT('',(9.5,-40.,0.));
#599=CARTESIAN_POINT('Origin',(-20.,-39.,0.));
#600=CARTESIAN_POINT('',(-20.,-19.5,0.));
#601=CARTESIAN_POINT('Origin',(-8.88178419700125E-15,8.88178419700125E-15,
0.));
#602=UNCERTAINTY_MEASURE_WITH_UNIT(LENGTH_MEASURE(0.01),#606,
'DISTANCE_ACCURACY_VALUE',
'Maximum model space distance between geometric entities at asserted c
onnectivities');
#603=UNCERTAINTY_MEASURE_WITH_UNIT(LENGTH_MEASURE(0.01),#606,
'DISTANCE_ACCURACY_VALUE',
'Maximum model space distance between geometric entities at asserted c
onnectivities');
#604=(
GEOMETRIC_REPRESENTATION_CONTEXT(3)
GLOBAL_UNCERTAINTY_ASSIGNED_CONTEXT((#602))
GLOBAL_UNIT_ASSIGNED_CONTEXT((#606,#609,#608))
REPRESENTATION_CONTEXT('','3D')
);
#605=(
GEOMETRIC_REPRESENTATION_CONTEXT(3)
GLOBAL_UNCERTAINTY_ASSIGNED_CONTEXT((#603))
GLOBAL_UNIT_ASSIGNED_CONTEXT((#606,#609,#608))
REPRESENTATION_CONTEXT('','3D')
);
#606=(
LENGTH_UNIT()
NAMED_UNIT(*)
SI_UNIT(.MILLI.,.METRE.)
);
#607=(
LENGTH_UNIT()
NAMED_UNIT(*)
SI_UNIT(.CENTI.,.METRE.)
);
#608=(
NAMED_UNIT(*)
SI_UNIT($,.STERADIAN.)
SOLID_ANGLE_UNIT()
);
#609=(
NAMED_UNIT(*)
PLANE_ANGLE_UNIT()
SI_UNIT($,.RADIAN.)
);
#610=SHAPE_DEFINITION_REPRESENTATION(#611,#612);
#611=PRODUCT_DEFINITION_SHAPE('',$,#614);
#612=SHAPE_REPRESENTATION('',(#366),#604);
#613=PRODUCT_DEFINITION_CONTEXT('part definition',#618,'design');
#614=PRODUCT_DEFINITION('319-20-09-29-02','319-20-09-29-02 Hohlprofil',
#615,#613);
#615=PRODUCT_DEFINITION_FORMATION('',$,#620);
#616=PRODUCT_RELATED_PRODUCT_CATEGORY('319-20-09-29-02 Hohlprofil',
'319-20-09-29-02 Hohlprofil',(#620));
#617=APPLICATION_PROTOCOL_DEFINITION('international standard',
'automotive_design',2009,#618);
#618=APPLICATION_CONTEXT(
'Core Data for Automotive Mechanical Design Process');
#619=PRODUCT_CONTEXT('part definition',#618,'mechanical');
#620=PRODUCT('319-20-09-29-02','319-20-09-29-02 Hohlprofil',
'Hohlprofil',(#619));
#621=PRESENTATION_STYLE_ASSIGNMENT((#622));
#622=SURFACE_STYLE_USAGE(.BOTH.,#623);
#623=SURFACE_SIDE_STYLE('',(#624));
#624=SURFACE_STYLE_FILL_AREA(#625);
#625=FILL_AREA_STYLE('',(#626));
#626=FILL_AREA_STYLE_COLOUR('',#627);
#627=COLOUR_RGB('',0.749019607843137,0.749019607843137,0.749019607843137);
ENDSEC;
END-ISO-10303-21;
