ISO-10303-21;
HEADER;
/* Generated by software containing ST-Developer
 * from STEP Tools, Inc. (www.steptools.com) 
 */

FILE_DESCRIPTION(
/* description */ ('Hohlprofil'),
/* implementation_level */ '2;1');

FILE_NAME(
/* name */ 
'Q:\\G200033  -  HBPO EQM V1_V3 - BMW FAAR_WE\\08 Konstruktion\\05 Z31
9-00\\319-20-00 Montagelinie V3\\319-20-09 VL3-080\\319-20-09-29-04 Ho
hlprofil.stp',
/* time_stamp */ '2021-03-10T13:20:47+01:00',
/* author */ ('herr_rommel'),
/* organization */ (''),
/* preprocessor_version */ 'ST-DEVELOPER v17',
/* originating_system */ 'Autodesk Inventor 2018',
/* authorisation */ '');

FILE_SCHEMA (('AUTOMOTIVE_DESIGN { 1 0 10303 214 3 1 1 }'));
ENDSEC;

DATA;
#10=MECHANICAL_DESIGN_GEOMETRIC_PRESENTATION_REPRESENTATION('',(#13),#605);
#11=SHAPE_REPRESENTATION_RELATIONSHIP('SRR','None',#612,#12);
#12=ADVANCED_BREP_SHAPE_REPRESENTATION('',(#14),#604);
#13=STYLED_ITEM('',(#621),#14);
#14=MANIFOLD_SOLID_BREP('Solid1',#347);
#15=CYLINDRICAL_SURFACE('',#385,1.);
#16=CYLINDRICAL_SURFACE('',#387,1.);
#17=CYLINDRICAL_SURFACE('',#389,1.);
#18=CYLINDRICAL_SURFACE('',#391,1.);
#19=CYLINDRICAL_SURFACE('',#392,1.);
#20=CYLINDRICAL_SURFACE('',#394,1.);
#21=CYLINDRICAL_SURFACE('',#397,1.);
#22=CYLINDRICAL_SURFACE('',#399,1.);
#23=FACE_BOUND('',#44,.T.);
#24=FACE_BOUND('',#46,.T.);
#25=FACE_OUTER_BOUND('',#43,.T.);
#26=FACE_OUTER_BOUND('',#45,.T.);
#27=FACE_OUTER_BOUND('',#47,.T.);
#28=FACE_OUTER_BOUND('',#48,.T.);
#29=FACE_OUTER_BOUND('',#49,.T.);
#30=FACE_OUTER_BOUND('',#50,.T.);
#31=FACE_OUTER_BOUND('',#51,.T.);
#32=FACE_OUTER_BOUND('',#52,.T.);
#33=FACE_OUTER_BOUND('',#53,.T.);
#34=FACE_OUTER_BOUND('',#54,.T.);
#35=FACE_OUTER_BOUND('',#55,.T.);
#36=FACE_OUTER_BOUND('',#56,.T.);
#37=FACE_OUTER_BOUND('',#57,.T.);
#38=FACE_OUTER_BOUND('',#58,.T.);
#39=FACE_OUTER_BOUND('',#59,.T.);
#40=FACE_OUTER_BOUND('',#60,.T.);
#41=FACE_OUTER_BOUND('',#61,.T.);
#42=FACE_OUTER_BOUND('',#62,.T.);
#43=EDGE_LOOP('',(#223,#224,#225,#226,#227,#228,#229,#230));
#44=EDGE_LOOP('',(#231,#232,#233,#234,#235,#236,#237,#238));
#45=EDGE_LOOP('',(#239,#240,#241,#242,#243,#244,#245,#246));
#46=EDGE_LOOP('',(#247,#248,#249,#250,#251,#252,#253,#254));
#47=EDGE_LOOP('',(#255,#256,#257,#258));
#48=EDGE_LOOP('',(#259,#260,#261,#262));
#49=EDGE_LOOP('',(#263,#264,#265,#266));
#50=EDGE_LOOP('',(#267,#268,#269,#270));
#51=EDGE_LOOP('',(#271,#272,#273,#274));
#52=EDGE_LOOP('',(#275,#276,#277,#278));
#53=EDGE_LOOP('',(#279,#280,#281,#282));
#54=EDGE_LOOP('',(#283,#284,#285,#286));
#55=EDGE_LOOP('',(#287,#288,#289,#290));
#56=EDGE_LOOP('',(#291,#292,#293,#294));
#57=EDGE_LOOP('',(#295,#296,#297,#298));
#58=EDGE_LOOP('',(#299,#300,#301,#302));
#59=EDGE_LOOP('',(#303,#304,#305,#306));
#60=EDGE_LOOP('',(#307,#308,#309,#310));
#61=EDGE_LOOP('',(#311,#312,#313,#314));
#62=EDGE_LOOP('',(#315,#316,#317,#318));
#63=LINE('',#509,#95);
#64=LINE('',#513,#96);
#65=LINE('',#517,#97);
#66=LINE('',#520,#98);
#67=LINE('',#525,#99);
#68=LINE('',#529,#100);
#69=LINE('',#533,#101);
#70=LINE('',#536,#102);
#71=LINE('',#542,#103);
#72=LINE('',#546,#104);
#73=LINE('',#550,#105);
#74=LINE('',#553,#106);
#75=LINE('',#558,#107);
#76=LINE('',#562,#108);
#77=LINE('',#566,#109);
#78=LINE('',#569,#110);
#79=LINE('',#571,#111);
#80=LINE('',#572,#112);
#81=LINE('',#574,#113);
#82=LINE('',#576,#114);
#83=LINE('',#578,#115);
#84=LINE('',#580,#116);
#85=LINE('',#581,#117);
#86=LINE('',#583,#118);
#87=LINE('',#585,#119);
#88=LINE('',#587,#120);
#89=LINE('',#589,#121);
#90=LINE('',#591,#122);
#91=LINE('',#594,#123);
#92=LINE('',#596,#124);
#93=LINE('',#598,#125);
#94=LINE('',#600,#126);
#95=VECTOR('',#407,10.);
#96=VECTOR('',#410,10.);
#97=VECTOR('',#413,10.);
#98=VECTOR('',#416,10.);
#99=VECTOR('',#419,10.);
#100=VECTOR('',#422,10.);
#101=VECTOR('',#425,10.);
#102=VECTOR('',#428,10.);
#103=VECTOR('',#433,10.);
#104=VECTOR('',#436,10.);
#105=VECTOR('',#439,10.);
#106=VECTOR('',#442,10.);
#107=VECTOR('',#445,10.);
#108=VECTOR('',#448,10.);
#109=VECTOR('',#451,10.);
#110=VECTOR('',#454,10.);
#111=VECTOR('',#457,10.);
#112=VECTOR('',#458,10.);
#113=VECTOR('',#461,10.);
#114=VECTOR('',#464,10.);
#115=VECTOR('',#467,10.);
#116=VECTOR('',#470,10.);
#117=VECTOR('',#471,10.);
#118=VECTOR('',#474,10.);
#119=VECTOR('',#477,10.);
#120=VECTOR('',#480,10.);
#121=VECTOR('',#483,10.);
#122=VECTOR('',#486,10.);
#123=VECTOR('',#491,10.);
#124=VECTOR('',#494,10.);
#125=VECTOR('',#497,10.);
#126=VECTOR('',#500,10.);
#127=ELLIPSE('',#368,1.03527618041008,1.);
#128=ELLIPSE('',#369,1.03527618041008,1.);
#129=ELLIPSE('',#370,1.03527618041008,1.);
#130=ELLIPSE('',#371,1.03527618041008,1.);
#131=ELLIPSE('',#372,1.03527618041008,1.);
#132=ELLIPSE('',#373,1.03527618041008,1.);
#133=ELLIPSE('',#374,1.03527618041008,1.);
#134=ELLIPSE('',#375,1.03527618041008,1.);
#135=ELLIPSE('',#377,1.03527618041008,1.);
#136=ELLIPSE('',#378,1.03527618041008,1.);
#137=ELLIPSE('',#379,1.03527618041008,1.);
#138=ELLIPSE('',#380,1.03527618041008,1.);
#139=ELLIPSE('',#381,1.03527618041008,1.);
#140=ELLIPSE('',#382,1.03527618041008,1.);
#141=ELLIPSE('',#383,1.03527618041008,1.);
#142=ELLIPSE('',#384,1.03527618041008,1.);
#143=VERTEX_POINT('',#505);
#144=VERTEX_POINT('',#506);
#145=VERTEX_POINT('',#508);
#146=VERTEX_POINT('',#510);
#147=VERTEX_POINT('',#512);
#148=VERTEX_POINT('',#514);
#149=VERTEX_POINT('',#516);
#150=VERTEX_POINT('',#518);
#151=VERTEX_POINT('',#521);
#152=VERTEX_POINT('',#522);
#153=VERTEX_POINT('',#524);
#154=VERTEX_POINT('',#526);
#155=VERTEX_POINT('',#528);
#156=VERTEX_POINT('',#530);
#157=VERTEX_POINT('',#532);
#158=VERTEX_POINT('',#534);
#159=VERTEX_POINT('',#538);
#160=VERTEX_POINT('',#539);
#161=VERTEX_POINT('',#541);
#162=VERTEX_POINT('',#543);
#163=VERTEX_POINT('',#545);
#164=VERTEX_POINT('',#547);
#165=VERTEX_POINT('',#549);
#166=VERTEX_POINT('',#551);
#167=VERTEX_POINT('',#554);
#168=VERTEX_POINT('',#555);
#169=VERTEX_POINT('',#557);
#170=VERTEX_POINT('',#559);
#171=VERTEX_POINT('',#561);
#172=VERTEX_POINT('',#563);
#173=VERTEX_POINT('',#565);
#174=VERTEX_POINT('',#567);
#175=EDGE_CURVE('',#143,#144,#127,.T.);
#176=EDGE_CURVE('',#145,#143,#63,.T.);
#177=EDGE_CURVE('',#146,#145,#128,.T.);
#178=EDGE_CURVE('',#147,#146,#64,.T.);
#179=EDGE_CURVE('',#148,#147,#129,.T.);
#180=EDGE_CURVE('',#149,#148,#65,.T.);
#181=EDGE_CURVE('',#150,#149,#130,.T.);
#182=EDGE_CURVE('',#144,#150,#66,.T.);
#183=EDGE_CURVE('',#151,#152,#131,.T.);
#184=EDGE_CURVE('',#153,#151,#67,.T.);
#185=EDGE_CURVE('',#154,#153,#132,.T.);
#186=EDGE_CURVE('',#155,#154,#68,.T.);
#187=EDGE_CURVE('',#156,#155,#133,.T.);
#188=EDGE_CURVE('',#157,#156,#69,.T.);
#189=EDGE_CURVE('',#158,#157,#134,.T.);
#190=EDGE_CURVE('',#152,#158,#70,.T.);
#191=EDGE_CURVE('',#159,#160,#135,.T.);
#192=EDGE_CURVE('',#161,#159,#71,.T.);
#193=EDGE_CURVE('',#162,#161,#136,.T.);
#194=EDGE_CURVE('',#163,#162,#72,.T.);
#195=EDGE_CURVE('',#164,#163,#137,.T.);
#196=EDGE_CURVE('',#165,#164,#73,.T.);
#197=EDGE_CURVE('',#166,#165,#138,.T.);
#198=EDGE_CURVE('',#160,#166,#74,.T.);
#199=EDGE_CURVE('',#167,#168,#139,.T.);
#200=EDGE_CURVE('',#169,#167,#75,.T.);
#201=EDGE_CURVE('',#170,#169,#140,.T.);
#202=EDGE_CURVE('',#171,#170,#76,.T.);
#203=EDGE_CURVE('',#172,#171,#141,.T.);
#204=EDGE_CURVE('',#173,#172,#77,.T.);
#205=EDGE_CURVE('',#174,#173,#142,.T.);
#206=EDGE_CURVE('',#168,#174,#78,.T.);
#207=EDGE_CURVE('',#172,#155,#79,.T.);
#208=EDGE_CURVE('',#171,#156,#80,.T.);
#209=EDGE_CURVE('',#173,#154,#81,.T.);
#210=EDGE_CURVE('',#174,#153,#82,.T.);
#211=EDGE_CURVE('',#168,#151,#83,.T.);
#212=EDGE_CURVE('',#149,#159,#84,.T.);
#213=EDGE_CURVE('',#150,#160,#85,.T.);
#214=EDGE_CURVE('',#161,#148,#86,.T.);
#215=EDGE_CURVE('',#147,#162,#87,.T.);
#216=EDGE_CURVE('',#152,#167,#88,.T.);
#217=EDGE_CURVE('',#170,#157,#89,.T.);
#218=EDGE_CURVE('',#169,#158,#90,.T.);
#219=EDGE_CURVE('',#146,#163,#91,.T.);
#220=EDGE_CURVE('',#145,#164,#92,.T.);
#221=EDGE_CURVE('',#143,#165,#93,.T.);
#222=EDGE_CURVE('',#144,#166,#94,.T.);
#223=ORIENTED_EDGE('',*,*,#175,.F.);
#224=ORIENTED_EDGE('',*,*,#176,.F.);
#225=ORIENTED_EDGE('',*,*,#177,.F.);
#226=ORIENTED_EDGE('',*,*,#178,.F.);
#227=ORIENTED_EDGE('',*,*,#179,.F.);
#228=ORIENTED_EDGE('',*,*,#180,.F.);
#229=ORIENTED_EDGE('',*,*,#181,.F.);
#230=ORIENTED_EDGE('',*,*,#182,.F.);
#231=ORIENTED_EDGE('',*,*,#183,.F.);
#232=ORIENTED_EDGE('',*,*,#184,.F.);
#233=ORIENTED_EDGE('',*,*,#185,.F.);
#234=ORIENTED_EDGE('',*,*,#186,.F.);
#235=ORIENTED_EDGE('',*,*,#187,.F.);
#236=ORIENTED_EDGE('',*,*,#188,.F.);
#237=ORIENTED_EDGE('',*,*,#189,.F.);
#238=ORIENTED_EDGE('',*,*,#190,.F.);
#239=ORIENTED_EDGE('',*,*,#191,.F.);
#240=ORIENTED_EDGE('',*,*,#192,.F.);
#241=ORIENTED_EDGE('',*,*,#193,.F.);
#242=ORIENTED_EDGE('',*,*,#194,.F.);
#243=ORIENTED_EDGE('',*,*,#195,.F.);
#244=ORIENTED_EDGE('',*,*,#196,.F.);
#245=ORIENTED_EDGE('',*,*,#197,.F.);
#246=ORIENTED_EDGE('',*,*,#198,.F.);
#247=ORIENTED_EDGE('',*,*,#199,.F.);
#248=ORIENTED_EDGE('',*,*,#200,.F.);
#249=ORIENTED_EDGE('',*,*,#201,.F.);
#250=ORIENTED_EDGE('',*,*,#202,.F.);
#251=ORIENTED_EDGE('',*,*,#203,.F.);
#252=ORIENTED_EDGE('',*,*,#204,.F.);
#253=ORIENTED_EDGE('',*,*,#205,.F.);
#254=ORIENTED_EDGE('',*,*,#206,.F.);
#255=ORIENTED_EDGE('',*,*,#187,.T.);
#256=ORIENTED_EDGE('',*,*,#207,.F.);
#257=ORIENTED_EDGE('',*,*,#203,.T.);
#258=ORIENTED_EDGE('',*,*,#208,.T.);
#259=ORIENTED_EDGE('',*,*,#186,.T.);
#260=ORIENTED_EDGE('',*,*,#209,.F.);
#261=ORIENTED_EDGE('',*,*,#204,.T.);
#262=ORIENTED_EDGE('',*,*,#207,.T.);
#263=ORIENTED_EDGE('',*,*,#185,.T.);
#264=ORIENTED_EDGE('',*,*,#210,.F.);
#265=ORIENTED_EDGE('',*,*,#205,.T.);
#266=ORIENTED_EDGE('',*,*,#209,.T.);
#267=ORIENTED_EDGE('',*,*,#184,.T.);
#268=ORIENTED_EDGE('',*,*,#211,.F.);
#269=ORIENTED_EDGE('',*,*,#206,.T.);
#270=ORIENTED_EDGE('',*,*,#210,.T.);
#271=ORIENTED_EDGE('',*,*,#181,.T.);
#272=ORIENTED_EDGE('',*,*,#212,.T.);
#273=ORIENTED_EDGE('',*,*,#191,.T.);
#274=ORIENTED_EDGE('',*,*,#213,.F.);
#275=ORIENTED_EDGE('',*,*,#180,.T.);
#276=ORIENTED_EDGE('',*,*,#214,.F.);
#277=ORIENTED_EDGE('',*,*,#192,.T.);
#278=ORIENTED_EDGE('',*,*,#212,.F.);
#279=ORIENTED_EDGE('',*,*,#179,.T.);
#280=ORIENTED_EDGE('',*,*,#215,.T.);
#281=ORIENTED_EDGE('',*,*,#193,.T.);
#282=ORIENTED_EDGE('',*,*,#214,.T.);
#283=ORIENTED_EDGE('',*,*,#183,.T.);
#284=ORIENTED_EDGE('',*,*,#216,.T.);
#285=ORIENTED_EDGE('',*,*,#199,.T.);
#286=ORIENTED_EDGE('',*,*,#211,.T.);
#287=ORIENTED_EDGE('',*,*,#188,.T.);
#288=ORIENTED_EDGE('',*,*,#208,.F.);
#289=ORIENTED_EDGE('',*,*,#202,.T.);
#290=ORIENTED_EDGE('',*,*,#217,.T.);
#291=ORIENTED_EDGE('',*,*,#189,.T.);
#292=ORIENTED_EDGE('',*,*,#217,.F.);
#293=ORIENTED_EDGE('',*,*,#201,.T.);
#294=ORIENTED_EDGE('',*,*,#218,.T.);
#295=ORIENTED_EDGE('',*,*,#190,.T.);
#296=ORIENTED_EDGE('',*,*,#218,.F.);
#297=ORIENTED_EDGE('',*,*,#200,.T.);
#298=ORIENTED_EDGE('',*,*,#216,.F.);
#299=ORIENTED_EDGE('',*,*,#178,.T.);
#300=ORIENTED_EDGE('',*,*,#219,.T.);
#301=ORIENTED_EDGE('',*,*,#194,.T.);
#302=ORIENTED_EDGE('',*,*,#215,.F.);
#303=ORIENTED_EDGE('',*,*,#177,.T.);
#304=ORIENTED_EDGE('',*,*,#220,.T.);
#305=ORIENTED_EDGE('',*,*,#195,.T.);
#306=ORIENTED_EDGE('',*,*,#219,.F.);
#307=ORIENTED_EDGE('',*,*,#176,.T.);
#308=ORIENTED_EDGE('',*,*,#221,.T.);
#309=ORIENTED_EDGE('',*,*,#196,.T.);
#310=ORIENTED_EDGE('',*,*,#220,.F.);
#311=ORIENTED_EDGE('',*,*,#175,.T.);
#312=ORIENTED_EDGE('',*,*,#222,.T.);
#313=ORIENTED_EDGE('',*,*,#197,.T.);
#314=ORIENTED_EDGE('',*,*,#221,.F.);
#315=ORIENTED_EDGE('',*,*,#182,.T.);
#316=ORIENTED_EDGE('',*,*,#213,.T.);
#317=ORIENTED_EDGE('',*,*,#198,.T.);
#318=ORIENTED_EDGE('',*,*,#222,.F.);
#319=PLANE('',#367);
#320=PLANE('',#376);
#321=PLANE('',#386);
#322=PLANE('',#388);
#323=PLANE('',#390);
#324=PLANE('',#393);
#325=PLANE('',#395);
#326=PLANE('',#396);
#327=PLANE('',#398);
#328=PLANE('',#400);
#329=ADVANCED_FACE('',(#25,#23),#319,.F.);
#330=ADVANCED_FACE('',(#26,#24),#320,.F.);
#331=ADVANCED_FACE('',(#27),#15,.F.);
#332=ADVANCED_FACE('',(#28),#321,.F.);
#333=ADVANCED_FACE('',(#29),#16,.F.);
#334=ADVANCED_FACE('',(#30),#322,.F.);
#335=ADVANCED_FACE('',(#31),#17,.T.);
#336=ADVANCED_FACE('',(#32),#323,.T.);
#337=ADVANCED_FACE('',(#33),#18,.T.);
#338=ADVANCED_FACE('',(#34),#19,.F.);
#339=ADVANCED_FACE('',(#35),#324,.F.);
#340=ADVANCED_FACE('',(#36),#20,.F.);
#341=ADVANCED_FACE('',(#37),#325,.F.);
#342=ADVANCED_FACE('',(#38),#326,.T.);
#343=ADVANCED_FACE('',(#39),#21,.T.);
#344=ADVANCED_FACE('',(#40),#327,.T.);
#345=ADVANCED_FACE('',(#41),#22,.T.);
#346=ADVANCED_FACE('',(#42),#328,.T.);
#347=CLOSED_SHELL('',(#329,#330,#331,#332,#333,#334,#335,#336,#337,#338,
#339,#340,#341,#342,#343,#344,#345,#346));
#348=DERIVED_UNIT_ELEMENT(#350,1.);
#349=DERIVED_UNIT_ELEMENT(#607,3.);
#350=(
MASS_UNIT()
NAMED_UNIT(*)
SI_UNIT($,.GRAM.)
);
#351=DERIVED_UNIT((#348,#349));
#352=MEASURE_REPRESENTATION_ITEM('density measure',
POSITIVE_RATIO_MEASURE(2.7),#351);
#353=PROPERTY_DEFINITION_REPRESENTATION(#358,#355);
#354=PROPERTY_DEFINITION_REPRESENTATION(#359,#356);
#355=REPRESENTATION('material name',(#357),#604);
#356=REPRESENTATION('density',(#352),#604);
#357=DESCRIPTIVE_REPRESENTATION_ITEM('AlMgSi1','AlMgSi1');
#358=PROPERTY_DEFINITION('material property','material name',#614);
#359=PROPERTY_DEFINITION('material property','density of part',#614);
#360=DATE_TIME_ROLE('creation_date');
#361=APPLIED_DATE_AND_TIME_ASSIGNMENT(#362,#360,(#614));
#362=DATE_AND_TIME(#363,#364);
#363=CALENDAR_DATE(2020,17,9);
#364=LOCAL_TIME(14,37,49.,#365);
#365=COORDINATED_UNIVERSAL_TIME_OFFSET(0,0,.BEHIND.);
#366=AXIS2_PLACEMENT_3D('placement',#503,#401,#402);
#367=AXIS2_PLACEMENT_3D('',#504,#403,#404);
#368=AXIS2_PLACEMENT_3D('',#507,#405,#406);
#369=AXIS2_PLACEMENT_3D('',#511,#408,#409);
#370=AXIS2_PLACEMENT_3D('',#515,#411,#412);
#371=AXIS2_PLACEMENT_3D('',#519,#414,#415);
#372=AXIS2_PLACEMENT_3D('',#523,#417,#418);
#373=AXIS2_PLACEMENT_3D('',#527,#420,#421);
#374=AXIS2_PLACEMENT_3D('',#531,#423,#424);
#375=AXIS2_PLACEMENT_3D('',#535,#426,#427);
#376=AXIS2_PLACEMENT_3D('',#537,#429,#430);
#377=AXIS2_PLACEMENT_3D('',#540,#431,#432);
#378=AXIS2_PLACEMENT_3D('',#544,#434,#435);
#379=AXIS2_PLACEMENT_3D('',#548,#437,#438);
#380=AXIS2_PLACEMENT_3D('',#552,#440,#441);
#381=AXIS2_PLACEMENT_3D('',#556,#443,#444);
#382=AXIS2_PLACEMENT_3D('',#560,#446,#447);
#383=AXIS2_PLACEMENT_3D('',#564,#449,#450);
#384=AXIS2_PLACEMENT_3D('',#568,#452,#453);
#385=AXIS2_PLACEMENT_3D('',#570,#455,#456);
#386=AXIS2_PLACEMENT_3D('',#573,#459,#460);
#387=AXIS2_PLACEMENT_3D('',#575,#462,#463);
#388=AXIS2_PLACEMENT_3D('',#577,#465,#466);
#389=AXIS2_PLACEMENT_3D('',#579,#468,#469);
#390=AXIS2_PLACEMENT_3D('',#582,#472,#473);
#391=AXIS2_PLACEMENT_3D('',#584,#475,#476);
#392=AXIS2_PLACEMENT_3D('',#586,#478,#479);
#393=AXIS2_PLACEMENT_3D('',#588,#481,#482);
#394=AXIS2_PLACEMENT_3D('',#590,#484,#485);
#395=AXIS2_PLACEMENT_3D('',#592,#487,#488);
#396=AXIS2_PLACEMENT_3D('',#593,#489,#490);
#397=AXIS2_PLACEMENT_3D('',#595,#492,#493);
#398=AXIS2_PLACEMENT_3D('',#597,#495,#496);
#399=AXIS2_PLACEMENT_3D('',#599,#498,#499);
#400=AXIS2_PLACEMENT_3D('',#601,#501,#502);
#401=DIRECTION('axis',(0.,0.,1.));
#402=DIRECTION('refdir',(1.,0.,0.));
#403=DIRECTION('center_axis',(0.258819045102521,1.81986346620066E-16,-0.965925826289068));
#404=DIRECTION('ref_axis',(0.965925826289068,6.77300900479707E-16,0.258819045102521));
#405=DIRECTION('center_axis',(0.258819045102521,1.81986346620066E-16,-0.965925826289068));
#406=DIRECTION('ref_axis',(-0.965925826289068,0.,-0.258819045102521));
#407=DIRECTION('',(0.965925826289068,6.77300900479707E-16,0.258819045102521));
#408=DIRECTION('center_axis',(0.258819045102521,1.81986346620066E-16,-0.965925826289068));
#409=DIRECTION('ref_axis',(0.965925826289068,0.,0.258819045102521));
#410=DIRECTION('',(-7.40148683083438E-16,1.,-9.9161120955584E-18));
#411=DIRECTION('center_axis',(0.258819045102521,1.81986346620066E-16,-0.965925826289068));
#412=DIRECTION('ref_axis',(0.965925826289068,0.,0.258819045102521));
#413=DIRECTION('',(-0.965925826289068,0.,-0.258819045102521));
#414=DIRECTION('center_axis',(0.258819045102521,1.81986346620066E-16,-0.965925826289068));
#415=DIRECTION('ref_axis',(-0.965925826289068,0.,-0.258819045102521));
#416=DIRECTION('',(-2.84672570416707E-17,-1.,0.));
#417=DIRECTION('center_axis',(-0.258819045102521,-1.81986346620066E-16,
0.965925826289068));
#418=DIRECTION('ref_axis',(-0.965925826289068,0.,-0.258819045102521));
#419=DIRECTION('',(0.,-1.,-1.88406129815608E-16));
#420=DIRECTION('center_axis',(-0.258819045102521,-1.81986346620066E-16,
0.965925826289068));
#421=DIRECTION('ref_axis',(-0.965925826289068,0.,-0.258819045102521));
#422=DIRECTION('',(-0.965925826289068,0.,-0.258819045102521));
#423=DIRECTION('center_axis',(-0.258819045102521,-1.81986346620066E-16,
0.965925826289068));
#424=DIRECTION('ref_axis',(0.965925826289068,0.,0.258819045102521));
#425=DIRECTION('',(0.,1.,1.88406129815608E-16));
#426=DIRECTION('center_axis',(-0.258819045102521,-1.81986346620066E-16,
0.965925826289068));
#427=DIRECTION('ref_axis',(0.965925826289068,0.,0.258819045102521));
#428=DIRECTION('',(0.965925826289068,0.,0.258819045102521));
#429=DIRECTION('center_axis',(0.25881904510252,1.81986346620066E-16,0.965925826289069));
#430=DIRECTION('ref_axis',(-0.965925826289069,-6.77300900479707E-16,0.25881904510252));
#431=DIRECTION('center_axis',(0.25881904510252,1.81986346620066E-16,0.965925826289069));
#432=DIRECTION('ref_axis',(-0.965925826289069,0.,0.25881904510252));
#433=DIRECTION('',(0.965925826289069,0.,-0.25881904510252));
#434=DIRECTION('center_axis',(0.25881904510252,1.81986346620066E-16,0.965925826289069));
#435=DIRECTION('ref_axis',(0.965925826289069,0.,-0.25881904510252));
#436=DIRECTION('',(7.40148683083438E-16,-1.,-9.91611209555834E-18));
#437=DIRECTION('center_axis',(0.25881904510252,1.81986346620066E-16,0.965925826289069));
#438=DIRECTION('ref_axis',(0.965925826289069,0.,-0.25881904510252));
#439=DIRECTION('',(-0.965925826289069,-6.77300900479707E-16,0.25881904510252));
#440=DIRECTION('center_axis',(0.25881904510252,1.81986346620066E-16,0.965925826289069));
#441=DIRECTION('ref_axis',(-0.965925826289069,0.,0.25881904510252));
#442=DIRECTION('',(2.84672570416707E-17,1.,0.));
#443=DIRECTION('center_axis',(-0.25881904510252,-1.81986346620066E-16,-0.965925826289069));
#444=DIRECTION('ref_axis',(-0.965925826289069,0.,0.25881904510252));
#445=DIRECTION('',(-0.965925826289069,0.,0.25881904510252));
#446=DIRECTION('center_axis',(-0.25881904510252,-1.81986346620066E-16,-0.965925826289069));
#447=DIRECTION('ref_axis',(0.965925826289069,0.,-0.25881904510252));
#448=DIRECTION('',(0.,-1.,1.88406129815607E-16));
#449=DIRECTION('center_axis',(-0.25881904510252,-1.81986346620066E-16,-0.965925826289069));
#450=DIRECTION('ref_axis',(0.965925826289069,0.,-0.25881904510252));
#451=DIRECTION('',(0.965925826289069,0.,-0.25881904510252));
#452=DIRECTION('center_axis',(-0.25881904510252,-1.81986346620066E-16,-0.965925826289069));
#453=DIRECTION('ref_axis',(-0.965925826289069,0.,0.25881904510252));
#454=DIRECTION('',(0.,1.,-1.88406129815607E-16));
#455=DIRECTION('center_axis',(0.,0.,1.));
#456=DIRECTION('ref_axis',(1.,0.,0.));
#457=DIRECTION('',(0.,0.,1.));
#458=DIRECTION('',(0.,0.,1.));
#459=DIRECTION('center_axis',(0.,1.,0.));
#460=DIRECTION('ref_axis',(0.,0.,1.));
#461=DIRECTION('',(0.,0.,1.));
#462=DIRECTION('center_axis',(0.,0.,1.));
#463=DIRECTION('ref_axis',(0.,1.,0.));
#464=DIRECTION('',(0.,0.,1.));
#465=DIRECTION('center_axis',(-1.,0.,0.));
#466=DIRECTION('ref_axis',(0.,0.,1.));
#467=DIRECTION('',(0.,0.,1.));
#468=DIRECTION('center_axis',(0.,0.,1.));
#469=DIRECTION('ref_axis',(0.,1.,0.));
#470=DIRECTION('',(0.,0.,-1.));
#471=DIRECTION('',(0.,0.,-1.));
#472=DIRECTION('center_axis',(0.,-1.,0.));
#473=DIRECTION('ref_axis',(0.,0.,-1.));
#474=DIRECTION('',(0.,0.,1.));
#475=DIRECTION('center_axis',(0.,0.,1.));
#476=DIRECTION('ref_axis',(1.,0.,0.));
#477=DIRECTION('',(0.,0.,-1.));
#478=DIRECTION('center_axis',(0.,0.,1.));
#479=DIRECTION('ref_axis',(-1.,0.,0.));
#480=DIRECTION('',(0.,0.,-1.));
#481=DIRECTION('center_axis',(1.,0.,0.));
#482=DIRECTION('ref_axis',(0.,0.,-1.));
#483=DIRECTION('',(0.,0.,1.));
#484=DIRECTION('center_axis',(0.,0.,1.));
#485=DIRECTION('ref_axis',(0.,-1.,0.));
#486=DIRECTION('',(0.,0.,1.));
#487=DIRECTION('center_axis',(0.,-1.,0.));
#488=DIRECTION('ref_axis',(0.,0.,-1.));
#489=DIRECTION('center_axis',(-1.,-7.40148683083438E-16,0.));
#490=DIRECTION('ref_axis',(0.,0.,1.));
#491=DIRECTION('',(0.,0.,-1.));
#492=DIRECTION('center_axis',(0.,0.,1.));
#493=DIRECTION('ref_axis',(0.,-1.,0.));
#494=DIRECTION('',(0.,0.,-1.));
#495=DIRECTION('center_axis',(-7.01193489236941E-16,1.,0.));
#496=DIRECTION('ref_axis',(0.,0.,1.));
#497=DIRECTION('',(0.,0.,-1.));
#498=DIRECTION('center_axis',(0.,0.,1.));
#499=DIRECTION('ref_axis',(-1.,0.,0.));
#500=DIRECTION('',(0.,0.,-1.));
#501=DIRECTION('center_axis',(1.,-2.84672570416707E-17,0.));
#502=DIRECTION('ref_axis',(0.,0.,-1.));
#503=CARTESIAN_POINT('',(0.,0.,0.));
#504=CARTESIAN_POINT('Origin',(-20.,40.,481.782032302755));
#505=CARTESIAN_POINT('',(19.,40.,492.232050807569));
#506=CARTESIAN_POINT('',(20.,39.,492.5));
#507=CARTESIAN_POINT('Origin',(19.,39.,492.232050807569));
#508=CARTESIAN_POINT('',(-19.,40.,482.049981495186));
#509=CARTESIAN_POINT('',(-79.7562476868983,39.9999999999999,465.770393992337));
#510=CARTESIAN_POINT('',(-20.,39.,481.782032302755));
#511=CARTESIAN_POINT('Origin',(-19.,39.,482.049981495186));
#512=CARTESIAN_POINT('',(-20.,-39.,481.782032302755));
#513=CARTESIAN_POINT('',(-20.,0.499999999999996,481.782032302755));
#514=CARTESIAN_POINT('',(-19.,-40.,482.049981495186));
#515=CARTESIAN_POINT('Origin',(-19.,-39.,482.049981495186));
#516=CARTESIAN_POINT('',(19.,-40.,492.232050807569));
#517=CARTESIAN_POINT('',(-62.0290063509461,-40.,470.520393992337));
#518=CARTESIAN_POINT('',(20.,-39.,492.5));
#519=CARTESIAN_POINT('Origin',(19.,-39.,492.232050807569));
#520=CARTESIAN_POINT('',(20.,39.,492.5));
#521=CARTESIAN_POINT('',(-16.,-35.,482.85382907248));
#522=CARTESIAN_POINT('',(-15.,-36.,483.121778264911));
#523=CARTESIAN_POINT('Origin',(-15.,-35.,483.121778264911));
#524=CARTESIAN_POINT('',(-16.,35.,482.85382907248));
#525=CARTESIAN_POINT('',(-16.,2.49999999999995,482.85382907248));
#526=CARTESIAN_POINT('',(-15.,36.,483.121778264911));
#527=CARTESIAN_POINT('Origin',(-15.,35.,483.121778264911));
#528=CARTESIAN_POINT('',(15.,36.,491.160254037844));
#529=CARTESIAN_POINT('',(-77.8902222831139,36.,466.270393992337));
#530=CARTESIAN_POINT('',(16.,35.,491.428203230275));
#531=CARTESIAN_POINT('Origin',(15.,35.,491.160254037844));
#532=CARTESIAN_POINT('',(16.,-35.,491.428203230275));
#533=CARTESIAN_POINT('',(16.,37.5,491.428203230275));
#534=CARTESIAN_POINT('',(15.,-36.,491.160254037844));
#535=CARTESIAN_POINT('Origin',(15.,-35.,491.160254037844));
#536=CARTESIAN_POINT('',(-63.8950317547306,-36.,470.020393992337));
#537=CARTESIAN_POINT('Origin',(20.,40.,-492.5));
#538=CARTESIAN_POINT('',(19.,-40.,-492.232050807569));
#539=CARTESIAN_POINT('',(20.,-39.,-492.5));
#540=CARTESIAN_POINT('Origin',(19.,-39.,-492.232050807569));
#541=CARTESIAN_POINT('',(-19.,-40.,-482.049981495186));
#542=CARTESIAN_POINT('',(-42.0290063509458,-40.,-475.879377840959));
#543=CARTESIAN_POINT('',(-20.,-39.,-481.782032302755));
#544=CARTESIAN_POINT('Origin',(-19.,-39.,-482.049981495186));
#545=CARTESIAN_POINT('',(-20.,39.,-481.782032302755));
#546=CARTESIAN_POINT('',(-20.,0.499999999999995,-481.782032302755));
#547=CARTESIAN_POINT('',(-19.,40.,-482.049981495186));
#548=CARTESIAN_POINT('Origin',(-19.,39.,-482.049981495186));
#549=CARTESIAN_POINT('',(19.,40.,-492.232050807569));
#550=CARTESIAN_POINT('',(-59.756247686898,40.,-471.129377840959));
#551=CARTESIAN_POINT('',(20.,39.,-492.5));
#552=CARTESIAN_POINT('Origin',(19.,39.,-492.232050807569));
#553=CARTESIAN_POINT('',(20.,39.,-492.5));
#554=CARTESIAN_POINT('',(-15.,-36.,-483.121778264911));
#555=CARTESIAN_POINT('',(-16.,-35.,-482.85382907248));
#556=CARTESIAN_POINT('Origin',(-15.,-35.,-483.121778264911));
#557=CARTESIAN_POINT('',(15.,-36.,-491.160254037844));
#558=CARTESIAN_POINT('',(-43.8950317547303,-36.,-475.379377840959));
#559=CARTESIAN_POINT('',(16.,-35.,-491.428203230275));
#560=CARTESIAN_POINT('Origin',(15.,-35.,-491.160254037844));
#561=CARTESIAN_POINT('',(16.,35.,-491.428203230275));
#562=CARTESIAN_POINT('',(16.,37.5,-491.428203230276));
#563=CARTESIAN_POINT('',(15.,36.,-491.160254037844));
#564=CARTESIAN_POINT('Origin',(15.,35.,-491.160254037844));
#565=CARTESIAN_POINT('',(-15.,36.,-483.121778264911));
#566=CARTESIAN_POINT('',(-57.8902222831136,36.,-471.629377840959));
#567=CARTESIAN_POINT('',(-16.,35.,-482.85382907248));
#568=CARTESIAN_POINT('Origin',(-15.,35.,-483.121778264911));
#569=CARTESIAN_POINT('',(-16.,2.49999999999996,-482.85382907248));
#570=CARTESIAN_POINT('Origin',(15.,35.,0.));
#571=CARTESIAN_POINT('',(15.,36.,0.));
#572=CARTESIAN_POINT('',(16.,35.,0.));
#573=CARTESIAN_POINT('Origin',(-15.,36.,0.));
#574=CARTESIAN_POINT('',(-15.,36.,0.));
#575=CARTESIAN_POINT('Origin',(-15.,35.,0.));
#576=CARTESIAN_POINT('',(-16.,35.,0.));
#577=CARTESIAN_POINT('Origin',(-16.,-35.,0.));
#578=CARTESIAN_POINT('',(-16.,-35.,0.));
#579=CARTESIAN_POINT('Origin',(19.,-39.,0.));
#580=CARTESIAN_POINT('',(19.,-40.,0.));
#581=CARTESIAN_POINT('',(20.,-39.,0.));
#582=CARTESIAN_POINT('Origin',(19.,-40.,0.));
#583=CARTESIAN_POINT('',(-19.,-40.,0.));
#584=CARTESIAN_POINT('Origin',(-19.,-39.,0.));
#585=CARTESIAN_POINT('',(-20.,-39.,0.));
#586=CARTESIAN_POINT('Origin',(-15.,-35.,0.));
#587=CARTESIAN_POINT('',(-15.,-36.,0.));
#588=CARTESIAN_POINT('Origin',(16.,35.,0.));
#589=CARTESIAN_POINT('',(16.,-35.,0.));
#590=CARTESIAN_POINT('Origin',(15.,-35.,0.));
#591=CARTESIAN_POINT('',(15.,-36.,0.));
#592=CARTESIAN_POINT('Origin',(15.,-36.,0.));
#593=CARTESIAN_POINT('Origin',(-20.,-39.,0.));
#594=CARTESIAN_POINT('',(-20.,39.,0.));
#595=CARTESIAN_POINT('Origin',(-19.,39.,0.));
#596=CARTESIAN_POINT('',(-19.,40.,0.));
#597=CARTESIAN_POINT('Origin',(-19.,40.,0.));
#598=CARTESIAN_POINT('',(19.,40.,0.));
#599=CARTESIAN_POINT('Origin',(19.,39.,0.));
#600=CARTESIAN_POINT('',(20.,39.,0.));
#601=CARTESIAN_POINT('Origin',(20.,39.,0.));
#602=UNCERTAINTY_MEASURE_WITH_UNIT(LENGTH_MEASURE(0.01),#606,
'DISTANCE_ACCURACY_VALUE',
'Maximum model space distance between geometric entities at asserted c
onnectivities');
#603=UNCERTAINTY_MEASURE_WITH_UNIT(LENGTH_MEASURE(0.01),#606,
'DISTANCE_ACCURACY_VALUE',
'Maximum model space distance between geometric entities at asserted c
onnectivities');
#604=(
GEOMETRIC_REPRESENTATION_CONTEXT(3)
GLOBAL_UNCERTAINTY_ASSIGNED_CONTEXT((#602))
GLOBAL_UNIT_ASSIGNED_CONTEXT((#606,#609,#608))
REPRESENTATION_CONTEXT('','3D')
);
#605=(
GEOMETRIC_REPRESENTATION_CONTEXT(3)
GLOBAL_UNCERTAINTY_ASSIGNED_CONTEXT((#603))
GLOBAL_UNIT_ASSIGNED_CONTEXT((#606,#609,#608))
REPRESENTATION_CONTEXT('','3D')
);
#606=(
LENGTH_UNIT()
NAMED_UNIT(*)
SI_UNIT(.MILLI.,.METRE.)
);
#607=(
LENGTH_UNIT()
NAMED_UNIT(*)
SI_UNIT(.CENTI.,.METRE.)
);
#608=(
NAMED_UNIT(*)
SI_UNIT($,.STERADIAN.)
SOLID_ANGLE_UNIT()
);
#609=(
NAMED_UNIT(*)
PLANE_ANGLE_UNIT()
SI_UNIT($,.RADIAN.)
);
#610=SHAPE_DEFINITION_REPRESENTATION(#611,#612);
#611=PRODUCT_DEFINITION_SHAPE('',$,#614);
#612=SHAPE_REPRESENTATION('',(#366),#604);
#613=PRODUCT_DEFINITION_CONTEXT('part definition',#618,'design');
#614=PRODUCT_DEFINITION('319-20-09-29-04','319-20-09-29-04 Hohlprofil',
#615,#613);
#615=PRODUCT_DEFINITION_FORMATION('',$,#620);
#616=PRODUCT_RELATED_PRODUCT_CATEGORY('319-20-09-29-04 Hohlprofil',
'319-20-09-29-04 Hohlprofil',(#620));
#617=APPLICATION_PROTOCOL_DEFINITION('international standard',
'automotive_design',2009,#618);
#618=APPLICATION_CONTEXT(
'Core Data for Automotive Mechanical Design Process');
#619=PRODUCT_CONTEXT('part definition',#618,'mechanical');
#620=PRODUCT('319-20-09-29-04','319-20-09-29-04 Hohlprofil',
'Hohlprofil',(#619));
#621=PRESENTATION_STYLE_ASSIGNMENT((#622));
#622=SURFACE_STYLE_USAGE(.BOTH.,#623);
#623=SURFACE_SIDE_STYLE('',(#624));
#624=SURFACE_STYLE_FILL_AREA(#625);
#625=FILL_AREA_STYLE('',(#626));
#626=FILL_AREA_STYLE_COLOUR('',#627);
#627=COLOUR_RGB('',0.749019607843137,0.749019607843137,0.749019607843137);
ENDSEC;
END-ISO-10303-21;
