0
SECTION
2
HEADER
9
$EXTMAX
10
-33.9583
20
47.7083
9
$EXTMIN
10
-17347
20
-9260.05
9
$LTSCALE
40
5.0
0
ENDSEC
0
SECTION
2
TABLES
0
TABLE
2
LTYPE
70
3
0
LTYPE
2
DOT
70
64
3
...............................................
72
65
73
2
40
0.25
49
0.0
49
-0.25
0
ENDTAB
0
TABLE
2
LAYER
70
9
0
LAYER
2
Geometrie
70
64
62
7
6
CONTINUOUS
0
LAYER
2
koty
70
64
62
7
6
CONTINUOUS
0
LAYER
2
popis
70
64
62
7
6
CONTINUOUS
0
LAYER
2
0
70
64
62
7
6
CONTINUOUS
0
LAYER
2
0
70
64
62
7
6
CONTINUOUS
0
LAYER
2
0
70
64
62
7
6
CONTINUOUS
0
LAYER
2
0
70
64
62
7
6
CONTINUOUS
0
LAYER
2
0
70
64
62
7
6
CONTINUOUS
0
LAYER
2
0
70
64
62
7
6
CONTINUOUS
0
ENDTAB
0
ENDSEC
0
SECTION
2
BLOCKS
0
BLOCK
8
1
2
*LDIMENSION39
70
1
6
BYBLOCK
62
0
10
0.0
20
0.0
0
LINE
8
koty
62
5
6
CONTINUOUS
10
-16133.958008
20
-7952.291504
11
-17257.000000
21
-7952.291504
0
LINE
8
koty
62
5
6
CONTINUOUS
10
-17214.500000
20
-7932.291504
11
-17207.000000
21
-7952.291504
0
LINE
8
koty
62
5
6
CONTINUOUS
10
-17207.000000
20
-7952.291504
11
-17199.500000
21
-7932.291504
0
LINE
8
koty
62
5
6
CONTINUOUS
10
-17199.500000
20
-7932.291504
11
-17214.500000
21
-7932.291504
0
LINE
8
koty
62
5
6
CONTINUOUS
10
-17207.000000
20
-7952.291504
11
-17207.000000
21
-7932.291504
0
LINE
8
koty
62
5
6
CONTINUOUS
10
-16133.958008
20
47.708332
11
-17257.000000
21
47.708332
0
LINE
8
koty
62
5
6
CONTINUOUS
10
-17199.500000
20
27.708332
11
-17207.000000
21
47.708332
0
LINE
8
koty
62
5
6
CONTINUOUS
10
-17207.000000
20
47.708332
11
-17214.500000
21
27.708332
0
LINE
8
koty
62
5
6
CONTINUOUS
10
-17214.500000
20
27.708332
11
-17199.500000
21
27.708332
0
LINE
8
koty
62
5
6
CONTINUOUS
10
-17207.000000
20
47.708332
11
-17207.000000
21
-7932.291504
0
TEXT
8
koty
62
5
10
-17246.999968
20
-4302.291668
40
100.000000
1
8000.00
50
90.000000
41
1.000000
0
ENDBLK
0
BLOCK
8
1
2
*LDIMENSION40
70
1
6
BYBLOCK
62
0
10
0.0
20
0.0
0
LINE
8
koty
62
5
6
CONTINUOUS
10
-10633.958008
20
-1702.291626
11
-11114.330078
21
-1702.291626
0
LINE
8
koty
62
5
6
CONTINUOUS
10
-11071.830078
20
-1682.291626
11
-11064.330078
21
-1702.291626
0
LINE
8
koty
62
5
6
CONTINUOUS
10
-11064.330078
20
-1702.291626
11
-11056.830078
21
-1682.291626
0
LINE
8
koty
62
5
6
CONTINUOUS
10
-11056.830078
20
-1682.291626
11
-11071.830078
21
-1682.291626
0
LINE
8
koty
62
5
6
CONTINUOUS
10
-11064.330078
20
-1702.291626
11
-11064.330078
21
-1682.291626
0
LINE
8
koty
62
5
6
CONTINUOUS
10
-10633.958008
20
-252.291672
11
-11114.330078
21
-252.291672
0
LINE
8
koty
62
5
6
CONTINUOUS
10
-11056.830078
20
-272.291656
11
-11064.330078
21
-252.291672
0
LINE
8
koty
62
5
6
CONTINUOUS
10
-11064.330078
20
-252.291672
11
-11071.830078
21
-272.291656
0
LINE
8
koty
62
5
6
CONTINUOUS
10
-11071.830078
20
-272.291656
11
-11056.830078
21
-272.291656
0
LINE
8
koty
62
5
6
CONTINUOUS
10
-11064.330078
20
-252.291672
11
-11064.330078
21
-1682.291626
0
TEXT
8
koty
62
5
10
-11104.330546
20
-1327.291666
40
100.000000
1
1450.00
50
90.000000
41
1.000000
0
ENDBLK
0
BLOCK
8
1
2
*LDIMENSION41
70
1
6
BYBLOCK
62
0
10
0.0
20
0.0
0
LINE
8
koty
62
5
6
CONTINUOUS
10
-10633.958008
20
-3252.291748
11
-11163.583984
21
-3252.291748
0
LINE
8
koty
62
5
6
CONTINUOUS
10
-11121.083984
20
-3232.291748
11
-11113.583984
21
-3252.291748
0
LINE
8
koty
62
5
6
CONTINUOUS
10
-11113.583984
20
-3252.291748
11
-11106.083984
21
-3232.291748
0
LINE
8
koty
62
5
6
CONTINUOUS
10
-11106.083984
20
-3232.291748
11
-11121.083984
21
-3232.291748
0
LINE
8
koty
62
5
6
CONTINUOUS
10
-11113.583984
20
-3252.291748
11
-11113.583984
21
-3232.291748
0
LINE
8
koty
62
5
6
CONTINUOUS
10
-10633.958008
20
-1802.291626
11
-11163.583984
21
-1802.291626
0
LINE
8
koty
62
5
6
CONTINUOUS
10
-11106.083984
20
-1822.291626
11
-11113.583984
21
-1802.291626
0
LINE
8
koty
62
5
6
CONTINUOUS
10
-11113.583984
20
-1802.291626
11
-11121.083984
21
-1822.291626
0
LINE
8
koty
62
5
6
CONTINUOUS
10
-11121.083984
20
-1822.291626
11
-11106.083984
21
-1822.291626
0
LINE
8
koty
62
5
6
CONTINUOUS
10
-11113.583984
20
-1802.291626
11
-11113.583984
21
-3232.291748
0
TEXT
8
koty
62
5
10
-11153.583994
20
-2877.291668
40
100.000000
1
1450.00
50
90.000000
41
1.000000
0
ENDBLK
0
BLOCK
8
1
2
*LDIMENSION43
70
1
6
BYBLOCK
62
0
10
0.0
20
0.0
0
LINE
8
koty
62
5
6
CONTINUOUS
10
-433.958344
20
-3902.291748
11
-1399.433716
21
-3902.291748
0
LINE
8
koty
62
5
6
CONTINUOUS
10
-1356.933716
20
-3882.291748
11
-1349.433716
21
-3902.291748
0
LINE
8
koty
62
5
6
CONTINUOUS
10
-1349.433716
20
-3902.291748
11
-1341.933716
21
-3882.291748
0
LINE
8
koty
62
5
6
CONTINUOUS
10
-1341.933716
20
-3882.291748
11
-1356.933716
21
-3882.291748
0
LINE
8
koty
62
5
6
CONTINUOUS
10
-1349.433716
20
-3902.291748
11
-1349.433716
21
-3882.291748
0
LINE
8
koty
62
5
6
CONTINUOUS
10
-433.958344
20
-252.291672
11
-1399.433716
21
-252.291672
0
LINE
8
koty
62
5
6
CONTINUOUS
10
-1341.933716
20
-272.291656
11
-1349.433716
21
-252.291672
0
LINE
8
koty
62
5
6
CONTINUOUS
10
-1349.433716
20
-252.291672
11
-1356.933716
21
-272.291656
0
LINE
8
koty
62
5
6
CONTINUOUS
10
-1356.933716
20
-272.291656
11
-1341.933716
21
-272.291656
0
LINE
8
koty
62
5
6
CONTINUOUS
10
-1349.433716
20
-252.291672
11
-1349.433716
21
-3882.291748
0
TEXT
8
koty
62
5
10
-1389.433735
20
-2427.291666
40
100.000000
1
3650.00
50
90.000000
41
1.000000
0
ENDBLK
0
BLOCK
8
1
2
*LDIMENSION44
70
1
6
BYBLOCK
62
0
10
0.0
20
0.0
0
LINE
8
koty
62
5
6
CONTINUOUS
10
-433.958344
20
-7652.291504
11
-1383.459717
21
-7652.291504
0
LINE
8
koty
62
5
6
CONTINUOUS
10
-1340.959717
20
-7632.291504
11
-1333.459717
21
-7652.291504
0
LINE
8
koty
62
5
6
CONTINUOUS
10
-1333.459717
20
-7652.291504
11
-1325.959717
21
-7632.291504
0
LINE
8
koty
62
5
6
CONTINUOUS
10
-1325.959717
20
-7632.291504
11
-1340.959717
21
-7632.291504
0
LINE
8
koty
62
5
6
CONTINUOUS
10
-1333.459717
20
-7652.291504
11
-1333.459717
21
-7632.291504
0
LINE
8
koty
62
5
6
CONTINUOUS
10
-433.958344
20
-4002.291748
11
-1383.459717
21
-4002.291748
0
LINE
8
koty
62
5
6
CONTINUOUS
10
-1325.959717
20
-4022.291748
11
-1333.459717
21
-4002.291748
0
LINE
8
koty
62
5
6
CONTINUOUS
10
-1333.459717
20
-4002.291748
11
-1340.959717
21
-4022.291748
0
LINE
8
koty
62
5
6
CONTINUOUS
10
-1340.959717
20
-4022.291748
11
-1325.959717
21
-4022.291748
0
LINE
8
koty
62
5
6
CONTINUOUS
10
-1333.459717
20
-4002.291748
11
-1333.459717
21
-7632.291504
0
TEXT
8
koty
62
5
10
-1373.459689
20
-6177.291669
40
100.000000
1
3650.00
50
90.000000
41
1.000000
0
ENDBLK
0
BLOCK
8
1
2
*LDIMENSION45
70
1
6
BYBLOCK
62
0
10
0.0
20
0.0
0
LINE
8
koty
62
5
6
CONTINUOUS
10
-4533.958496
20
-7652.291504
11
-5648.536621
21
-7652.291504
0
LINE
8
koty
62
5
6
CONTINUOUS
10
-5606.036621
20
-7632.291504
11
-5598.536621
21
-7652.291504
0
LINE
8
koty
62
5
6
CONTINUOUS
10
-5598.536621
20
-7652.291504
11
-5591.036621
21
-7632.291504
0
LINE
8
koty
62
5
6
CONTINUOUS
10
-5591.036621
20
-7632.291504
11
-5606.036621
21
-7632.291504
0
LINE
8
koty
62
5
6
CONTINUOUS
10
-5598.536621
20
-7652.291504
11
-5598.536621
21
-7632.291504
0
LINE
8
koty
62
5
6
CONTINUOUS
10
-4533.958496
20
-4652.291504
11
-5648.536621
21
-4652.291504
0
LINE
8
koty
62
5
6
CONTINUOUS
10
-5591.036621
20
-4672.291504
11
-5598.536621
21
-4652.291504
0
LINE
8
koty
62
5
6
CONTINUOUS
10
-5598.536621
20
-4652.291504
11
-5606.036621
21
-4672.291504
0
LINE
8
koty
62
5
6
CONTINUOUS
10
-5606.036621
20
-4672.291504
11
-5591.036621
21
-4672.291504
0
LINE
8
koty
62
5
6
CONTINUOUS
10
-5598.536621
20
-4652.291504
11
-5598.536621
21
-7632.291504
0
TEXT
8
koty
62
5
10
-5638.536555
20
-6502.291669
40
100.000000
1
3000.00
50
90.000000
41
1.000000
0
ENDBLK
0
BLOCK
8
1
2
*LDIMENSION46
70
1
6
BYBLOCK
62
0
10
0.0
20
0.0
0
LINE
8
koty
62
5
6
CONTINUOUS
10
-11233.958008
20
-7652.291504
11
-10931.797852
21
-7652.291504
0
LINE
8
koty
62
5
6
CONTINUOUS
10
-10989.297852
20
-7632.291504
11
-10981.797852
21
-7652.291504
0
LINE
8
koty
62
5
6
CONTINUOUS
10
-10981.797852
20
-7652.291504
11
-10974.297852
21
-7632.291504
0
LINE
8
koty
62
5
6
CONTINUOUS
10
-10974.297852
20
-7632.291504
11
-10989.297852
21
-7632.291504
0
LINE
8
koty
62
5
6
CONTINUOUS
10
-10981.797852
20
-7652.291504
11
-10981.797852
21
-7632.291504
0
LINE
8
koty
62
5
6
CONTINUOUS
10
-11233.958008
20
-6152.291504
11
-10931.797852
21
-6152.291504
0
LINE
8
koty
62
5
6
CONTINUOUS
10
-10974.297852
20
-6172.291504
11
-10981.797852
21
-6152.291504
0
LINE
8
koty
62
5
6
CONTINUOUS
10
-10981.797852
20
-6152.291504
11
-10989.297852
21
-6172.291504
0
LINE
8
koty
62
5
6
CONTINUOUS
10
-10989.297852
20
-6172.291504
11
-10974.297852
21
-6172.291504
0
LINE
8
koty
62
5
6
CONTINUOUS
10
-10981.797852
20
-6152.291504
11
-10981.797852
21
-7632.291504
0
TEXT
8
koty
62
5
10
-11021.798105
20
-7252.291671
40
100.000000
1
1500.00
50
90.000000
41
1.000000
0
ENDBLK
0
BLOCK
8
1
2
*LDIMENSION47
70
1
6
BYBLOCK
62
0
10
0.0
20
0.0
0
LINE
8
koty
62
5
6
CONTINUOUS
10
-15633.958008
20
-7652.291504
11
-14394.658203
21
-7652.291504
0
LINE
8
koty
62
5
6
CONTINUOUS
10
-14452.158203
20
-7632.291504
11
-14444.658203
21
-7652.291504
0
LINE
8
koty
62
5
6
CONTINUOUS
10
-14444.658203
20
-7652.291504
11
-14437.158203
21
-7632.291504
0
LINE
8
koty
62
5
6
CONTINUOUS
10
-14437.158203
20
-7632.291504
11
-14452.158203
21
-7632.291504
0
LINE
8
koty
62
5
6
CONTINUOUS
10
-14444.658203
20
-7652.291504
11
-14444.658203
21
-7632.291504
0
LINE
8
koty
62
5
6
CONTINUOUS
10
-15633.958008
20
-252.291672
11
-14394.658203
21
-252.291672
0
LINE
8
koty
62
5
6
CONTINUOUS
10
-14437.158203
20
-272.291656
11
-14444.658203
21
-252.291672
0
LINE
8
koty
62
5
6
CONTINUOUS
10
-14444.658203
20
-252.291672
11
-14452.158203
21
-272.291656
0
LINE
8
koty
62
5
6
CONTINUOUS
10
-14452.158203
20
-272.291656
11
-14437.158203
21
-272.291656
0
LINE
8
koty
62
5
6
CONTINUOUS
10
-14444.658203
20
-252.291672
11
-14444.658203
21
-7632.291504
0
TEXT
8
koty
62
5
10
-14484.657764
20
-4302.291668
40
100.000000
1
7400.00
50
90.000000
41
1.000000
0
ENDBLK
0
BLOCK
8
1
2
*LDIMENSION54
70
1
6
BYBLOCK
62
0
10
0.0
20
0.0
0
LINE
8
koty
62
5
6
CONTINUOUS
10
-4333.958496
20
-352.291656
11
-4333.958496
21
-873.574829
0
LINE
8
koty
62
5
6
CONTINUOUS
10
-4313.958496
20
-816.074829
11
-4333.958496
21
-823.574829
0
LINE
8
koty
62
5
6
CONTINUOUS
10
-4333.958496
20
-823.574829
11
-4313.958496
21
-831.074829
0
LINE
8
koty
62
5
6
CONTINUOUS
10
-4313.958496
20
-831.074829
11
-4313.958496
21
-816.074829
0
LINE
8
koty
62
5
6
CONTINUOUS
10
-4333.958496
20
-823.574829
11
-4313.958496
21
-823.574829
0
LINE
8
koty
62
5
6
CONTINUOUS
10
-333.958344
20
-352.291656
11
-333.958344
21
-873.574829
0
LINE
8
koty
62
5
6
CONTINUOUS
10
-353.958344
20
-831.074829
11
-333.958344
21
-823.574829
0
LINE
8
koty
62
5
6
CONTINUOUS
10
-333.958344
20
-823.574829
11
-353.958344
21
-816.074829
0
LINE
8
koty
62
5
6
CONTINUOUS
10
-353.958344
20
-816.074829
11
-353.958344
21
-831.074829
0
LINE
8
koty
62
5
6
CONTINUOUS
10
-333.958344
20
-823.574829
11
-4313.958496
21
-823.574829
0
TEXT
8
koty
62
5
10
-2683.958332
20
-783.574848
40
100.000000
1
4000.00
41
1.000000
0
ENDBLK
0
BLOCK
8
1
2
*LDIMENSION55
70
1
6
BYBLOCK
62
0
10
0.0
20
0.0
0
LINE
8
koty
62
5
6
CONTINUOUS
10
-7433.958496
20
-352.291656
11
-7433.958496
21
-886.886597
0
LINE
8
koty
62
5
6
CONTINUOUS
10
-7413.958496
20
-829.386597
11
-7433.958496
21
-836.886597
0
LINE
8
koty
62
5
6
CONTINUOUS
10
-7433.958496
20
-836.886597
11
-7413.958496
21
-844.386597
0
LINE
8
koty
62
5
6
CONTINUOUS
10
-7413.958496
20
-844.386597
11
-7413.958496
21
-829.386597
0
LINE
8
koty
62
5
6
CONTINUOUS
10
-7433.958496
20
-836.886597
11
-7413.958496
21
-836.886597
0
LINE
8
koty
62
5
6
CONTINUOUS
10
-4433.958496
20
-352.291656
11
-4433.958496
21
-886.886597
0
LINE
8
koty
62
5
6
CONTINUOUS
10
-4453.958496
20
-844.386597
11
-4433.958496
21
-836.886597
0
LINE
8
koty
62
5
6
CONTINUOUS
10
-4433.958496
20
-836.886597
11
-4453.958496
21
-829.386597
0
LINE
8
koty
62
5
6
CONTINUOUS
10
-4453.958496
20
-829.386597
11
-4453.958496
21
-844.386597
0
LINE
8
koty
62
5
6
CONTINUOUS
10
-4433.958496
20
-836.886597
11
-7413.958496
21
-836.886597
0
TEXT
8
koty
62
5
10
-6283.958332
20
-796.886578
40
100.000000
1
3000.00
41
1.000000
0
ENDBLK
0
BLOCK
8
1
2
*LDIMENSION56
70
1
6
BYBLOCK
62
0
10
0.0
20
0.0
0
LINE
8
koty
62
5
6
CONTINUOUS
10
-10533.958008
20
-352.291656
11
-10533.958008
21
-633.963684
0
LINE
8
koty
62
5
6
CONTINUOUS
10
-10513.958008
20
-576.463684
11
-10533.958008
21
-583.963684
0
LINE
8
koty
62
5
6
CONTINUOUS
10
-10533.958008
20
-583.963684
11
-10513.958008
21
-591.463684
0
LINE
8
koty
62
5
6
CONTINUOUS
10
-10513.958008
20
-591.463684
11
-10513.958008
21
-576.463684
0
LINE
8
koty
62
5
6
CONTINUOUS
10
-10533.958008
20
-583.963684
11
-10513.958008
21
-583.963684
0
LINE
8
koty
62
5
6
CONTINUOUS
10
-7533.958496
20
-352.291656
11
-7533.958496
21
-633.963684
0
LINE
8
koty
62
5
6
CONTINUOUS
10
-7553.958496
20
-591.463684
11
-7533.958496
21
-583.963684
0
LINE
8
koty
62
5
6
CONTINUOUS
10
-7533.958496
20
-583.963684
11
-7553.958496
21
-576.463684
0
LINE
8
koty
62
5
6
CONTINUOUS
10
-7553.958496
20
-576.463684
11
-7553.958496
21
-591.463684
0
LINE
8
koty
62
5
6
CONTINUOUS
10
-7533.958496
20
-583.963684
11
-10513.958008
21
-583.963684
0
TEXT
8
koty
62
5
10
-9383.958332
20
-543.963706
40
100.000000
1
3000.00
41
1.000000
0
ENDBLK
0
BLOCK
8
1
2
*LDIMENSION57
70
1
6
BYBLOCK
62
0
10
0.0
20
0.0
0
LINE
8
koty
62
5
6
CONTINUOUS
10
-12033.958008
20
-352.291656
11
-12033.958008
21
-567.405029
0
LINE
8
koty
62
5
6
CONTINUOUS
10
-12013.958008
20
-509.905060
11
-12033.958008
21
-517.405029
0
LINE
8
koty
62
5
6
CONTINUOUS
10
-12033.958008
20
-517.405029
11
-12013.958008
21
-524.905029
0
LINE
8
koty
62
5
6
CONTINUOUS
10
-12013.958008
20
-524.905029
11
-12013.958008
21
-509.905060
0
LINE
8
koty
62
5
6
CONTINUOUS
10
-12033.958008
20
-517.405029
11
-12013.958008
21
-517.405029
0
LINE
8
koty
62
5
6
CONTINUOUS
10
-10633.958008
20
-352.291656
11
-10633.958008
21
-567.405029
0
LINE
8
koty
62
5
6
CONTINUOUS
10
-10653.958008
20
-524.905029
11
-10633.958008
21
-517.405029
0
LINE
8
koty
62
5
6
CONTINUOUS
10
-10633.958008
20
-517.405029
11
-10653.958008
21
-509.905060
0
LINE
8
koty
62
5
6
CONTINUOUS
10
-10653.958008
20
-509.905060
11
-10653.958008
21
-524.905029
0
LINE
8
koty
62
5
6
CONTINUOUS
10
-10633.958008
20
-517.405029
11
-12013.958008
21
-517.405029
0
TEXT
8
koty
62
5
10
-11683.958332
20
-477.405059
40
100.000000
1
1400.00
41
1.000000
0
ENDBLK
0
BLOCK
8
1
2
*LDIMENSION58
70
1
6
BYBLOCK
62
0
10
0.0
20
0.0
0
LINE
8
koty
62
5
6
CONTINUOUS
10
-15733.958008
20
-352.291656
11
-15733.958008
21
-940.133545
0
LINE
8
koty
62
5
6
CONTINUOUS
10
-15713.958008
20
-882.633545
11
-15733.958008
21
-890.133545
0
LINE
8
koty
62
5
6
CONTINUOUS
10
-15733.958008
20
-890.133545
11
-15713.958008
21
-897.633545
0
LINE
8
koty
62
5
6
CONTINUOUS
10
-15713.958008
20
-897.633545
11
-15713.958008
21
-882.633545
0
LINE
8
koty
62
5
6
CONTINUOUS
10
-15733.958008
20
-890.133545
11
-15713.958008
21
-890.133545
0
LINE
8
koty
62
5
6
CONTINUOUS
10
-12133.958008
20
-352.291656
11
-12133.958008
21
-940.133545
0
LINE
8
koty
62
5
6
CONTINUOUS
10
-12153.958008
20
-897.633545
11
-12133.958008
21
-890.133545
0
LINE
8
koty
62
5
6
CONTINUOUS
10
-12133.958008
20
-890.133545
11
-12153.958008
21
-882.633545
0
LINE
8
koty
62
5
6
CONTINUOUS
10
-12153.958008
20
-882.633545
11
-12153.958008
21
-897.633545
0
LINE
8
koty
62
5
6
CONTINUOUS
10
-12133.958008
20
-890.133545
11
-15713.958008
21
-890.133545
0
TEXT
8
koty
62
5
10
-14283.958335
20
-850.133539
40
100.000000
1
3600.00
41
1.000000
0
ENDBLK
0
BLOCK
8
1
2
*LDIMENSION60
70
1
6
BYBLOCK
62
0
10
0.0
20
0.0
0
LINE
8
koty
62
5
6
CONTINUOUS
10
-4333.958496
20
-7552.291504
11
-4333.958496
21
-6990.951660
0
LINE
8
koty
62
5
6
CONTINUOUS
10
-4313.958496
20
-7033.451660
11
-4333.958496
21
-7040.951660
0
LINE
8
koty
62
5
6
CONTINUOUS
10
-4333.958496
20
-7040.951660
11
-4313.958496
21
-7048.451660
0
LINE
8
koty
62
5
6
CONTINUOUS
10
-4313.958496
20
-7048.451660
11
-4313.958496
21
-7033.451660
0
LINE
8
koty
62
5
6
CONTINUOUS
10
-4333.958496
20
-7040.951660
11
-4313.958496
21
-7040.951660
0
LINE
8
koty
62
5
6
CONTINUOUS
10
-333.958344
20
-7552.291504
11
-333.958344
21
-6990.951660
0
LINE
8
koty
62
5
6
CONTINUOUS
10
-353.958344
20
-7048.451660
11
-333.958344
21
-7040.951660
0
LINE
8
koty
62
5
6
CONTINUOUS
10
-333.958344
20
-7040.951660
11
-353.958344
21
-7033.451660
0
LINE
8
koty
62
5
6
CONTINUOUS
10
-353.958344
20
-7033.451660
11
-353.958344
21
-7048.451660
0
LINE
8
koty
62
5
6
CONTINUOUS
10
-333.958344
20
-7040.951660
11
-4313.958496
21
-7040.951660
0
TEXT
8
koty
62
5
10
-2683.958332
20
-7000.951656
40
100.000000
1
4000.00
41
1.000000
0
ENDBLK
0
BLOCK
8
1
2
*LDIMENSION61
70
1
6
BYBLOCK
62
0
10
0.0
20
0.0
0
LINE
8
koty
62
5
6
CONTINUOUS
10
-8433.958008
20
-7552.291504
11
-8433.958008
21
-7182.640625
0
LINE
8
koty
62
5
6
CONTINUOUS
10
-8413.958008
20
-7225.140625
11
-8433.958008
21
-7232.640625
0
LINE
8
koty
62
5
6
CONTINUOUS
10
-8433.958008
20
-7232.640625
11
-8413.958008
21
-7240.140625
0
LINE
8
koty
62
5
6
CONTINUOUS
10
-8413.958008
20
-7240.140625
11
-8413.958008
21
-7225.140625
0
LINE
8
koty
62
5
6
CONTINUOUS
10
-8433.958008
20
-7232.640625
11
-8413.958008
21
-7232.640625
0
LINE
8
koty
62
5
6
CONTINUOUS
10
-4433.958496
20
-7552.291504
11
-4433.958496
21
-7182.640625
0
LINE
8
koty
62
5
6
CONTINUOUS
10
-4453.958496
20
-7240.140625
11
-4433.958496
21
-7232.640625
0
LINE
8
koty
62
5
6
CONTINUOUS
10
-4433.958496
20
-7232.640625
11
-4453.958496
21
-7225.140625
0
LINE
8
koty
62
5
6
CONTINUOUS
10
-4453.958496
20
-7225.140625
11
-4453.958496
21
-7240.140625
0
LINE
8
koty
62
5
6
CONTINUOUS
10
-4433.958496
20
-7232.640625
11
-8413.958008
21
-7232.640625
0
TEXT
8
koty
62
5
10
-6783.958332
20
-7192.640593
40
100.000000
1
4000.00
41
1.000000
0
ENDBLK
0
BLOCK
8
1
2
*LDIMENSION62
70
1
6
BYBLOCK
62
0
10
0.0
20
0.0
0
LINE
8
koty
62
5
6
CONTINUOUS
10
-10333.958008
20
-7552.291504
11
-10333.958008
21
-7278.484863
0
LINE
8
koty
62
5
6
CONTINUOUS
10
-10313.958008
20
-7320.984863
11
-10333.958008
21
-7328.484863
0
LINE
8
koty
62
5
6
CONTINUOUS
10
-10333.958008
20
-7328.484863
11
-10313.958008
21
-7335.984863
0
LINE
8
koty
62
5
6
CONTINUOUS
10
-10313.958008
20
-7335.984863
11
-10313.958008
21
-7320.984863
0
LINE
8
koty
62
5
6
CONTINUOUS
10
-10333.958008
20
-7328.484863
11
-10313.958008
21
-7328.484863
0
LINE
8
koty
62
5
6
CONTINUOUS
10
-8533.958008
20
-7552.291504
11
-8533.958008
21
-7278.484863
0
LINE
8
koty
62
5
6
CONTINUOUS
10
-8553.958008
20
-7335.984863
11
-8533.958008
21
-7328.484863
0
LINE
8
koty
62
5
6
CONTINUOUS
10
-8533.958008
20
-7328.484863
11
-8553.958008
21
-7320.984863
0
LINE
8
koty
62
5
6
CONTINUOUS
10
-8553.958008
20
-7320.984863
11
-8553.958008
21
-7335.984863
0
LINE
8
koty
62
5
6
CONTINUOUS
10
-8533.958008
20
-7328.484863
11
-10313.958008
21
-7328.484863
0
TEXT
8
koty
62
5
10
-9783.958332
20
-7288.485062
40
100.000000
1
1800.00
41
1.000000
0
ENDBLK
0
BLOCK
8
1
2
*LDIMENSION63
70
1
6
BYBLOCK
62
0
10
0.0
20
0.0
0
LINE
8
koty
62
5
6
CONTINUOUS
10
-11433.958008
20
-7552.291504
11
-11433.958008
21
-7451.004883
0
LINE
8
koty
62
5
6
CONTINUOUS
10
-11413.958008
20
-7493.504883
11
-11433.958008
21
-7501.004883
0
LINE
8
koty
62
5
6
CONTINUOUS
10
-11433.958008
20
-7501.004883
11
-11413.958008
21
-7508.504883
0
LINE
8
koty
62
5
6
CONTINUOUS
10
-11413.958008
20
-7508.504883
11
-11413.958008
21
-7493.504883
0
LINE
8
koty
62
5
6
CONTINUOUS
10
-11433.958008
20
-7501.004883
11
-11413.958008
21
-7501.004883
0
LINE
8
koty
62
5
6
CONTINUOUS
10
-10433.958008
20
-7552.291504
11
-10433.958008
21
-7451.004883
0
LINE
8
koty
62
5
6
CONTINUOUS
10
-10453.958008
20
-7508.504883
11
-10433.958008
21
-7501.004883
0
LINE
8
koty
62
5
6
CONTINUOUS
10
-10433.958008
20
-7501.004883
11
-10453.958008
21
-7493.504883
0
LINE
8
koty
62
5
6
CONTINUOUS
10
-10453.958008
20
-7493.504883
11
-10453.958008
21
-7508.504883
0
LINE
8
koty
62
5
6
CONTINUOUS
10
-10433.958008
20
-7501.004883
11
-11413.958008
21
-7501.004883
0
TEXT
8
koty
62
5
10
-11283.958332
20
-7461.005106
40
100.000000
1
1000.00
41
1.000000
0
ENDBLK
0
BLOCK
8
1
2
*LDIMENSION64
70
1
6
BYBLOCK
62
0
10
0.0
20
0.0
0
LINE
8
koty
62
5
6
CONTINUOUS
10
-15733.958008
20
-7552.291504
11
-15733.958008
21
-7266.504883
0
LINE
8
koty
62
5
6
CONTINUOUS
10
-15713.958008
20
-7309.004883
11
-15733.958008
21
-7316.504883
0
LINE
8
koty
62
5
6
CONTINUOUS
10
-15733.958008
20
-7316.504883
11
-15713.958008
21
-7324.004883
0
LINE
8
koty
62
5
6
CONTINUOUS
10
-15713.958008
20
-7324.004883
11
-15713.958008
21
-7309.004883
0
LINE
8
koty
62
5
6
CONTINUOUS
10
-15733.958008
20
-7316.504883
11
-15713.958008
21
-7316.504883
0
LINE
8
koty
62
5
6
CONTINUOUS
10
-11533.958008
20
-7552.291504
11
-11533.958008
21
-7266.504883
0
LINE
8
koty
62
5
6
CONTINUOUS
10
-11553.958008
20
-7324.004883
11
-11533.958008
21
-7316.504883
0
LINE
8
koty
62
5
6
CONTINUOUS
10
-11533.958008
20
-7316.504883
11
-11553.958008
21
-7309.004883
0
LINE
8
koty
62
5
6
CONTINUOUS
10
-11553.958008
20
-7309.004883
11
-11553.958008
21
-7324.004883
0
LINE
8
koty
62
5
6
CONTINUOUS
10
-11533.958008
20
-7316.504883
11
-15713.958008
21
-7316.504883
0
TEXT
8
koty
62
5
10
-13983.958335
20
-7276.504897
40
100.000000
1
4200.00
41
1.000000
0
ENDBLK
0
BLOCK
8
1
2
*LDIMENSION68
70
1
6
BYBLOCK
62
0
10
0.0
20
0.0
0
LINE
8
koty
62
5
6
CONTINUOUS
10
-10433.958008
20
-3252.291748
11
-9763.968750
21
-3252.291748
0
LINE
8
koty
62
5
6
CONTINUOUS
10
-9821.468750
20
-3232.291748
11
-9813.968750
21
-3252.291748
0
LINE
8
koty
62
5
6
CONTINUOUS
10
-9813.968750
20
-3252.291748
11
-9806.468750
21
-3232.291748
0
LINE
8
koty
62
5
6
CONTINUOUS
10
-9806.468750
20
-3232.291748
11
-9821.468750
21
-3232.291748
0
LINE
8
koty
62
5
6
CONTINUOUS
10
-9813.968750
20
-3252.291748
11
-9813.968750
21
-3232.291748
0
LINE
8
koty
62
5
6
CONTINUOUS
10
-10433.958008
20
-252.291672
11
-9763.968750
21
-252.291672
0
LINE
8
koty
62
5
6
CONTINUOUS
10
-9806.468750
20
-272.291656
11
-9813.968750
21
-252.291672
0
LINE
8
koty
62
5
6
CONTINUOUS
10
-9813.968750
20
-252.291672
11
-9821.468750
21
-272.291656
0
LINE
8
koty
62
5
6
CONTINUOUS
10
-9821.468750
20
-272.291656
11
-9806.468750
21
-272.291656
0
LINE
8
koty
62
5
6
CONTINUOUS
10
-9813.968750
20
-252.291672
11
-9813.968750
21
-3232.291748
0
TEXT
8
koty
62
5
10
-9853.969134
20
-2102.291667
40
100.000000
1
3000.00
50
90.000000
41
1.000000
0
ENDBLK
0
BLOCK
8
1
2
*LDIMENSION69
70
1
6
BYBLOCK
62
0
10
0.0
20
0.0
0
LINE
8
koty
62
5
6
CONTINUOUS
10
-7933.958496
20
-1902.291626
11
-7933.958496
21
-2118.297852
0
LINE
8
koty
62
5
6
CONTINUOUS
10
-7913.958496
20
-2060.797852
11
-7933.958496
21
-2068.297852
0
LINE
8
koty
62
5
6
CONTINUOUS
10
-7933.958496
20
-2068.297852
11
-7913.958496
21
-2075.797852
0
LINE
8
koty
62
5
6
CONTINUOUS
10
-7913.958496
20
-2075.797852
11
-7913.958496
21
-2060.797852
0
LINE
8
koty
62
5
6
CONTINUOUS
10
-7933.958496
20
-2068.297852
11
-7913.958496
21
-2068.297852
0
LINE
8
koty
62
5
6
CONTINUOUS
10
-6933.958496
20
-1902.291626
11
-6933.958496
21
-2118.297852
0
LINE
8
koty
62
5
6
CONTINUOUS
10
-6953.958496
20
-2075.797852
11
-6933.958496
21
-2068.297852
0
LINE
8
koty
62
5
6
CONTINUOUS
10
-6933.958496
20
-2068.297852
11
-6953.958496
21
-2060.797852
0
LINE
8
koty
62
5
6
CONTINUOUS
10
-6953.958496
20
-2060.797852
11
-6953.958496
21
-2075.797852
0
LINE
8
koty
62
5
6
CONTINUOUS
10
-6933.958496
20
-2068.297852
11
-7913.958496
21
-2068.297852
0
TEXT
8
koty
62
5
10
-7783.958332
20
-2028.297875
40
100.000000
1
1000.00
41
1.000000
0
ENDBLK
0
BLOCK
8
1
2
*LDIMENSION70
70
1
6
BYBLOCK
62
0
10
0.0
20
0.0
0
LINE
8
koty
62
5
6
CONTINUOUS
10
-7433.958496
20
-1602.291626
11
-7433.958496
21
-1281.529663
0
LINE
8
koty
62
5
6
CONTINUOUS
10
-7413.958496
20
-1324.029663
11
-7433.958496
21
-1331.529663
0
LINE
8
koty
62
5
6
CONTINUOUS
10
-7433.958496
20
-1331.529663
11
-7413.958496
21
-1339.029663
0
LINE
8
koty
62
5
6
CONTINUOUS
10
-7413.958496
20
-1339.029663
11
-7413.958496
21
-1324.029663
0
LINE
8
koty
62
5
6
CONTINUOUS
10
-7433.958496
20
-1331.529663
11
-7413.958496
21
-1331.529663
0
LINE
8
koty
62
5
6
CONTINUOUS
10
-6833.958496
20
-1602.291626
11
-6833.958496
21
-1281.529663
0
LINE
8
koty
62
5
6
CONTINUOUS
10
-6853.958496
20
-1339.029663
11
-6833.958496
21
-1331.529663
0
LINE
8
koty
62
5
6
CONTINUOUS
10
-6833.958496
20
-1331.529663
11
-6853.958496
21
-1324.029663
0
LINE
8
koty
62
5
6
CONTINUOUS
10
-6853.958496
20
-1324.029663
11
-6853.958496
21
-1339.029663
0
LINE
8
koty
62
5
6
CONTINUOUS
10
-6833.958496
20
-1331.529663
11
-7413.958496
21
-1331.529663
0
TEXT
8
koty
62
5
10
-7433.958332
20
-1291.529640
40
100.000000
1
600.00
41
1.000000
0
ENDBLK
0
BLOCK
8
1
2
*LDIMENSION71
70
1
6
BYBLOCK
62
0
10
0.0
20
0.0
0
LINE
8
koty
62
5
6
CONTINUOUS
10
-8033.958496
20
-1602.291626
11
-8033.958496
21
-1438.016846
0
LINE
8
koty
62
5
6
CONTINUOUS
10
-8013.958496
20
-1480.516846
11
-8033.958496
21
-1488.016846
0
LINE
8
koty
62
5
6
CONTINUOUS
10
-8033.958496
20
-1488.016846
11
-8013.958496
21
-1495.516846
0
LINE
8
koty
62
5
6
CONTINUOUS
10
-8013.958496
20
-1495.516846
11
-8013.958496
21
-1480.516846
0
LINE
8
koty
62
5
6
CONTINUOUS
10
-8033.958496
20
-1488.016846
11
-8013.958496
21
-1488.016846
0
LINE
8
koty
62
5
6
CONTINUOUS
10
-7533.958496
20
-1602.291626
11
-7533.958496
21
-1438.016846
0
LINE
8
koty
62
5
6
CONTINUOUS
10
-7553.958496
20
-1495.516846
11
-7533.958496
21
-1488.016846
0
LINE
8
koty
62
5
6
CONTINUOUS
10
-7533.958496
20
-1488.016846
11
-7553.958496
21
-1480.516846
0
LINE
8
koty
62
5
6
CONTINUOUS
10
-7553.958496
20
-1480.516846
11
-7553.958496
21
-1495.516846
0
LINE
8
koty
62
5
6
CONTINUOUS
10
-7533.958496
20
-1488.016846
11
-8013.958496
21
-1488.016846
0
TEXT
8
koty
62
5
10
-8083.958332
20
-1448.016802
40
100.000000
1
500.00
41
1.000000
0
ENDBLK
0
BLOCK
8
1
2
*LDIMENSION73
70
1
6
BYBLOCK
62
0
10
0.0
20
0.0
0
LINE
8
koty
62
5
6
CONTINUOUS
10
-16033.958008
20
-8052.291504
11
-16033.958008
21
-9260.054688
0
LINE
8
koty
62
5
6
CONTINUOUS
10
-16013.958008
20
-9202.554688
11
-16033.958008
21
-9210.054688
0
LINE
8
koty
62
5
6
CONTINUOUS
10
-16033.958008
20
-9210.054688
11
-16013.958008
21
-9217.554688
0
LINE
8
koty
62
5
6
CONTINUOUS
10
-16013.958008
20
-9217.554688
11
-16013.958008
21
-9202.554688
0
LINE
8
koty
62
5
6
CONTINUOUS
10
-16033.958008
20
-9210.054688
11
-16013.958008
21
-9210.054688
0
LINE
8
koty
62
5
6
CONTINUOUS
10
-33.958336
20
-8052.291504
11
-33.958336
21
-9260.054688
0
LINE
8
koty
62
5
6
CONTINUOUS
10
-53.958336
20
-9217.554688
11
-33.958336
21
-9210.054688
0
LINE
8
koty
62
5
6
CONTINUOUS
10
-33.958336
20
-9210.054688
11
-53.958336
21
-9202.554688
0
LINE
8
koty
62
5
6
CONTINUOUS
10
-53.958336
20
-9202.554688
11
-53.958336
21
-9217.554688
0
LINE
8
koty
62
5
6
CONTINUOUS
10
-33.958336
20
-9210.054688
11
-16013.958008
21
-9210.054688
0
TEXT
8
koty
62
5
10
-8433.958335
20
-9170.054424
40
100.000000
1
16000.00
41
1.000000
0
ENDBLK
0
BLOCK
8
0
2
*XHATCH3
70
1
6
BYBLOCK
62
0
10
0.0
20
0.0
0
LINE
8
Geometrie
62
5
6
CONTINUOUS
10
-104.669014
20
-7952.291504
11
-33.958336
21
-7881.581055
0
LINE
8
Geometrie
62
5
6
CONTINUOUS
10
-175.379684
20
-7952.291504
11
-33.958336
21
-7810.870117
0
LINE
8
Geometrie
62
5
6
CONTINUOUS
10
-246.090363
20
-7952.291504
11
-33.958336
21
-7740.159668
0
LINE
8
Geometrie
62
5
6
CONTINUOUS
10
-316.801056
20
-7952.291504
11
-33.958336
21
-7669.448730
0
LINE
8
Geometrie
62
5
6
CONTINUOUS
10
-387.511719
20
-7952.291504
11
-33.958336
21
-7598.738281
0
LINE
8
Geometrie
62
5
6
CONTINUOUS
10
-458.222412
20
-7952.291504
11
-33.958336
21
-7528.027344
0
LINE
8
Geometrie
62
5
6
CONTINUOUS
10
-528.933105
20
-7952.291504
11
-33.958336
21
-7457.316895
0
LINE
8
Geometrie
62
5
6
CONTINUOUS
10
-599.643738
20
-7952.291504
11
-33.958336
21
-7386.605957
0
LINE
8
Geometrie
62
5
6
CONTINUOUS
10
-670.354431
20
-7952.291504
11
-370.354431
21
-7652.291504
0
LINE
8
Geometrie
62
5
6
CONTINUOUS
10
-333.958344
20
-7615.895508
11
-33.958336
21
-7315.895508
0
LINE
8
Geometrie
62
5
6
CONTINUOUS
10
-741.065125
20
-7952.291504
11
-441.065125
21
-7652.291504
0
LINE
8
Geometrie
62
5
6
CONTINUOUS
10
-333.958344
20
-7545.184570
11
-33.958336
21
-7245.184570
0
LINE
8
Geometrie
62
5
6
CONTINUOUS
10
-811.775818
20
-7952.291504
11
-511.775787
21
-7652.291504
0
LINE
8
Geometrie
62
5
6
CONTINUOUS
10
-333.958344
20
-7474.474121
11
-33.958336
21
-7174.474121
0
LINE
8
Geometrie
62
5
6
CONTINUOUS
10
-882.486450
20
-7952.291504
11
-582.486450
21
-7652.291504
0
LINE
8
Geometrie
62
5
6
CONTINUOUS
10
-333.958344
20
-7403.763184
11
-33.958336
21
-7103.763184
0
LINE
8
Geometrie
62
5
6
CONTINUOUS
10
-953.197144
20
-7952.291504
11
-653.197144
21
-7652.291504
0
LINE
8
Geometrie
62
5
6
CONTINUOUS
10
-333.958344
20
-7333.052734
11
-33.958336
21
-7033.052734
0
LINE
8
Geometrie
62
5
6
CONTINUOUS
10
-1023.907837
20
-7952.291504
11
-723.907837
21
-7652.291504
0
LINE
8
Geometrie
62
5
6
CONTINUOUS
10
-333.958344
20
-7262.341797
11
-33.958336
21
-6962.341797
0
LINE
8
Geometrie
62
5
6
CONTINUOUS
10
-1094.618530
20
-7952.291504
11
-794.618530
21
-7652.291504
0
LINE
8
Geometrie
62
5
6
CONTINUOUS
10
-333.958344
20
-7191.631348
11
-33.958336
21
-6891.631348
0
LINE
8
Geometrie
62
5
6
CONTINUOUS
10
-1165.329224
20
-7952.291504
11
-865.329163
21
-7652.291504
0
LINE
8
Geometrie
62
5
6
CONTINUOUS
10
-333.958344
20
-7120.920898
11
-33.958336
21
-6820.920410
0
LINE
8
Geometrie
62
5
6
CONTINUOUS
10
-1236.039917
20
-7952.291504
11
-936.039856
21
-7652.291504
0
LINE
8
Geometrie
62
5
6
CONTINUOUS
10
-333.958344
20
-7050.209961
11
-33.958336
21
-6750.209961
0
LINE
8
Geometrie
62
5
6
CONTINUOUS
10
-1306.750488
20
-7952.291504
11
-1006.750549
21
-7652.291504
0
LINE
8
Geometrie
62
5
6
CONTINUOUS
10
-333.958344
20
-6979.499512
11
-33.958336
21
-6679.499512
0
LINE
8
Geometrie
62
5
6
CONTINUOUS
10
-1377.461182
20
-7952.291504
11
-1077.461182
21
-7652.291504
0
LINE
8
Geometrie
62
5
6
CONTINUOUS
10
-333.958344
20
-6908.788574
11
-33.958336
21
-6608.788574
0
LINE
8
Geometrie
62
5
6
CONTINUOUS
10
-1448.171875
20
-7952.291504
11
-1148.171875
21
-7652.291504
0
LINE
8
Geometrie
62
5
6
CONTINUOUS
10
-333.958344
20
-6838.078125
11
-33.958336
21
-6538.078125
0
LINE
8
Geometrie
62
5
6
CONTINUOUS
10
-1518.882568
20
-7952.291504
11
-1218.882568
21
-7652.291504
0
LINE
8
Geometrie
62
5
6
CONTINUOUS
10
-333.958344
20
-6767.367188
11
-33.958336
21
-6467.367188
0
LINE
8
Geometrie
62
5
6
CONTINUOUS
10
-1589.593262
20
-7952.291504
11
-1289.593262
21
-7652.291504
0
LINE
8
Geometrie
62
5
6
CONTINUOUS
10
-333.958344
20
-6696.656738
11
-33.958336
21
-6396.656738
0
LINE
8
Geometrie
62
5
6
CONTINUOUS
10
-1660.303955
20
-7952.291504
11
-1360.303955
21
-7652.291504
0
LINE
8
Geometrie
62
5
6
CONTINUOUS
10
-333.958344
20
-6625.945801
11
-33.958336
21
-6325.945801
0
LINE
8
Geometrie
62
5
6
CONTINUOUS
10
-1731.014648
20
-7952.291504
11
-1431.014648
21
-7652.291504
0
LINE
8
Geometrie
62
5
6
CONTINUOUS
10
-333.958344
20
-6555.235352
11
-33.958336
21
-6255.235352
0
LINE
8
Geometrie
62
5
6
CONTINUOUS
10
-1801.725342
20
-7952.291504
11
-1501.725342
21
-7652.291504
0
LINE
8
Geometrie
62
5
6
CONTINUOUS
10
-333.958344
20
-6484.524414
11
-33.958336
21
-6184.524414
0
LINE
8
Geometrie
62
5
6
CONTINUOUS
10
-1872.435913
20
-7952.291504
11
-1572.435913
21
-7652.291504
0
LINE
8
Geometrie
62
5
6
CONTINUOUS
10
-333.958344
20
-6413.813965
11
-33.958336
21
-6113.813965
0
LINE
8
Geometrie
62
5
6
CONTINUOUS
10
-1943.146606
20
-7952.291504
11
-1643.146606
21
-7652.291504
0
LINE
8
Geometrie
62
5
6
CONTINUOUS
10
-333.958344
20
-6343.103027
11
-33.958336
21
-6043.103027
0
LINE
8
Geometrie
62
5
6
CONTINUOUS
10
-2013.857300
20
-7952.291504
11
-1713.857300
21
-7652.291504
0
LINE
8
Geometrie
62
5
6
CONTINUOUS
10
-333.958344
20
-6272.392578
11
-33.958336
21
-5972.392578
0
LINE
8
Geometrie
62
5
6
CONTINUOUS
10
-2084.568115
20
-7952.291504
11
-1784.567993
21
-7652.291504
0
LINE
8
Geometrie
62
5
6
CONTINUOUS
10
-333.958344
20
-6201.681641
11
-33.958336
21
-5901.681641
0
LINE
8
Geometrie
62
5
6
CONTINUOUS
10
-2155.278564
20
-7952.291504
11
-1855.278687
21
-7652.291504
0
LINE
8
Geometrie
62
5
6
CONTINUOUS
10
-333.958344
20
-6130.971191
11
-33.958336
21
-5830.971191
0
LINE
8
Geometrie
62
5
6
CONTINUOUS
10
-2225.989258
20
-7952.291504
11
-1925.989380
21
-7652.291504
0
LINE
8
Geometrie
62
5
6
CONTINUOUS
10
-333.958344
20
-6060.260254
11
-33.958336
21
-5760.260254
0
LINE
8
Geometrie
62
5
6
CONTINUOUS
10
-2296.699951
20
-7952.291504
11
-1996.700073
21
-7652.291504
0
LINE
8
Geometrie
62
5
6
CONTINUOUS
10
-333.958344
20
-5989.549805
11
-33.958336
21
-5689.549805
0
LINE
8
Geometrie
62
5
6
CONTINUOUS
10
-2367.410645
20
-7952.291504
11
-2067.410645
21
-7652.291504
0
LINE
8
Geometrie
62
5
6
CONTINUOUS
10
-333.958344
20
-5918.839355
11
-33.958336
21
-5618.839355
0
LINE
8
Geometrie
62
5
6
CONTINUOUS
10
-2438.121338
20
-7952.291504
11
-2138.121338
21
-7652.291504
0
LINE
8
Geometrie
62
5
6
CONTINUOUS
10
-333.958344
20
-5848.128418
11
-33.958336
21
-5548.128418
0
LINE
8
Geometrie
62
5
6
CONTINUOUS
10
-2508.832031
20
-7952.291504
11
-2208.832031
21
-7652.291504
0
LINE
8
Geometrie
62
5
6
CONTINUOUS
10
-333.958344
20
-5777.417969
11
-33.958336
21
-5477.417969
0
LINE
8
Geometrie
62
5
6
CONTINUOUS
10
-2579.542725
20
-7952.291504
11
-2279.542725
21
-7652.291504
0
LINE
8
Geometrie
62
5
6
CONTINUOUS
10
-333.958344
20
-5706.707031
11
-33.958336
21
-5406.707031
0
LINE
8
Geometrie
62
5
6
CONTINUOUS
10
-2650.253418
20
-7952.291504
11
-2350.253418
21
-7652.291504
0
LINE
8
Geometrie
62
5
6
CONTINUOUS
10
-333.958344
20
-5635.996582
11
-33.958336
21
-5335.996582
0
LINE
8
Geometrie
62
5
6
CONTINUOUS
10
-2720.964111
20
-7952.291504
11
-2420.964111
21
-7652.291504
0
LINE
8
Geometrie
62
5
6
CONTINUOUS
10
-333.958344
20
-5565.285645
11
-33.958336
21
-5265.285645
0
LINE
8
Geometrie
62
5
6
CONTINUOUS
10
-2791.674805
20
-7952.291504
11
-2491.674805
21
-7652.291504
0
LINE
8
Geometrie
62
5
6
CONTINUOUS
10
-333.958344
20
-5494.575195
11
-33.958336
21
-5194.575195
0
LINE
8
Geometrie
62
5
6
CONTINUOUS
10
-2862.385498
20
-7952.291504
11
-2562.385498
21
-7652.291504
0
LINE
8
Geometrie
62
5
6
CONTINUOUS
10
-333.958344
20
-5423.864258
11
-33.958336
21
-5123.864258
0
LINE
8
Geometrie
62
5
6
CONTINUOUS
10
-2933.096191
20
-7952.291504
11
-2633.096191
21
-7652.291504
0
LINE
8
Geometrie
62
5
6
CONTINUOUS
10
-333.958344
20
-5353.153809
11
-33.958336
21
-5053.153809
0
LINE
8
Geometrie
62
5
6
CONTINUOUS
10
-3003.806885
20
-7952.291504
11
-2703.806885
21
-7652.291504
0
LINE
8
Geometrie
62
5
6
CONTINUOUS
10
-333.958344
20
-5282.442871
11
-33.958336
21
-4982.442871
0
LINE
8
Geometrie
62
5
6
CONTINUOUS
10
-3074.517578
20
-7952.291504
11
-2774.517578
21
-7652.291504
0
LINE
8
Geometrie
62
5
6
CONTINUOUS
10
-333.958344
20
-5211.732422
11
-33.958336
21
-4911.732422
0
LINE
8
Geometrie
62
5
6
CONTINUOUS
10
-3145.228271
20
-7952.291504
11
-2845.228271
21
-7652.291504
0
LINE
8
Geometrie
62
5
6
CONTINUOUS
10
-333.958344
20
-5141.021484
11
-33.958336
21
-4841.021484
0
LINE
8
Geometrie
62
5
6
CONTINUOUS
10
-3215.938965
20
-7952.291504
11
-2915.938965
21
-7652.291504
0
LINE
8
Geometrie
62
5
6
CONTINUOUS
10
-333.958344
20
-5070.311035
11
-33.958336
21
-4770.311035
0
LINE
8
Geometrie
62
5
6
CONTINUOUS
10
-3286.649414
20
-7952.291504
11
-2986.649414
21
-7652.291504
0
LINE
8
Geometrie
62
5
6
CONTINUOUS
10
-333.958344
20
-4999.600098
11
-33.958336
21
-4699.600098
0
LINE
8
Geometrie
62
5
6
CONTINUOUS
10
-3357.360107
20
-7952.291504
11
-3057.360107
21
-7652.291504
0
LINE
8
Geometrie
62
5
6
CONTINUOUS
10
-333.958344
20
-4928.889648
11
-33.958336
21
-4628.889648
0
LINE
8
Geometrie
62
5
6
CONTINUOUS
10
-3428.070801
20
-7952.291504
11
-3128.070801
21
-7652.291504
0
LINE
8
Geometrie
62
5
6
CONTINUOUS
10
-333.958344
20
-4858.179199
11
-33.958336
21
-4558.178711
0
LINE
8
Geometrie
62
5
6
CONTINUOUS
10
-3498.781494
20
-7952.291504
11
-3198.781494
21
-7652.291504
0
LINE
8
Geometrie
62
5
6
CONTINUOUS
10
-333.958344
20
-4787.468262
11
-33.958336
21
-4487.468262
0
LINE
8
Geometrie
62
5
6
CONTINUOUS
10
-3569.492188
20
-7952.291504
11
-3269.492188
21
-7652.291504
0
LINE
8
Geometrie
62
5
6
CONTINUOUS
10
-333.958344
20
-4716.757813
11
-33.958336
21
-4416.757813
0
LINE
8
Geometrie
62
5
6
CONTINUOUS
10
-3640.202881
20
-7952.291504
11
-3340.202881
21
-7652.291504
0
LINE
8
Geometrie
62
5
6
CONTINUOUS
10
-333.958344
20
-4646.046875
11
-33.958336
21
-4346.046875
0
LINE
8
Geometrie
62
5
6
CONTINUOUS
10
-3710.913574
20
-7952.291504
11
-3410.913574
21
-7652.291504
0
LINE
8
Geometrie
62
5
6
CONTINUOUS
10
-333.958344
20
-4575.336426
11
-33.958336
21
-4275.336426
0
LINE
8
Geometrie
62
5
6
CONTINUOUS
10
-3781.624268
20
-7952.291504
11
-3481.624268
21
-7652.291504
0
LINE
8
Geometrie
62
5
6
CONTINUOUS
10
-333.958344
20
-4504.625488
11
-33.958336
21
-4204.625488
0
LINE
8
Geometrie
62
5
6
CONTINUOUS
10
-3852.334961
20
-7952.291504
11
-3552.334961
21
-7652.291504
0
LINE
8
Geometrie
62
5
6
CONTINUOUS
10
-333.958344
20
-4433.915039
11
-33.958336
21
-4133.915039
0
LINE
8
Geometrie
62
5
6
CONTINUOUS
10
-3923.045654
20
-7952.291504
11
-3623.045654
21
-7652.291504
0
LINE
8
Geometrie
62
5
6
CONTINUOUS
10
-333.958344
20
-4363.204102
11
-33.958336
21
-4063.204102
0
LINE
8
Geometrie
62
5
6
CONTINUOUS
10
-3993.756348
20
-7952.291504
11
-3693.756348
21
-7652.291504
0
LINE
8
Geometrie
62
5
6
CONTINUOUS
10
-333.958344
20
-4292.493652
11
-33.958336
21
-3992.493408
0
LINE
8
Geometrie
62
5
6
CONTINUOUS
10
-4064.467041
20
-7952.291504
11
-3764.467041
21
-7652.291504
0
LINE
8
Geometrie
62
5
6
CONTINUOUS
10
-333.958344
20
-4221.782715
11
-33.958336
21
-3921.782959
0
LINE
8
Geometrie
62
5
6
CONTINUOUS
10
-4135.177734
20
-7952.291504
11
-3835.177734
21
-7652.291504
0
LINE
8
Geometrie
62
5
6
CONTINUOUS
10
-333.958344
20
-4151.072266
11
-33.958336
21
-3851.072266
0
LINE
8
Geometrie
62
5
6
CONTINUOUS
10
-4205.888184
20
-7952.291504
11
-3905.888428
21
-7652.291504
0
LINE
8
Geometrie
62
5
6
CONTINUOUS
10
-333.958344
20
-4080.361572
11
-33.958336
21
-3780.361572
0
LINE
8
Geometrie
62
5
6
CONTINUOUS
10
-4276.599121
20
-7952.291504
11
-3976.599121
21
-7652.291504
0
LINE
8
Geometrie
62
5
6
CONTINUOUS
10
-333.958344
20
-4009.650879
11
-33.958336
21
-3709.650879
0
LINE
8
Geometrie
62
5
6
CONTINUOUS
10
-4347.309570
20
-7952.291504
11
-4047.309814
21
-7652.291504
0
LINE
8
Geometrie
62
5
6
CONTINUOUS
10
-397.309937
20
-4002.291748
11
-33.958336
21
-3638.940186
0
LINE
8
Geometrie
62
5
6
CONTINUOUS
10
-4418.020508
20
-7952.291504
11
-4118.020508
21
-7652.291504
0
LINE
8
Geometrie
62
5
6
CONTINUOUS
10
-468.020630
20
-4002.291748
11
-368.020630
21
-3902.291748
0
LINE
8
Geometrie
62
5
6
CONTINUOUS
10
-333.958344
20
-3868.229492
11
-33.958336
21
-3568.229492
0
LINE
8
Geometrie
62
5
6
CONTINUOUS
10
-4488.730957
20
-7952.291504
11
-4188.730957
21
-7652.291504
0
LINE
8
Geometrie
62
5
6
CONTINUOUS
10
-538.731323
20
-4002.291748
11
-438.731293
21
-3902.291748
0
LINE
8
Geometrie
62
5
6
CONTINUOUS
10
-333.958344
20
-3797.518799
11
-33.958336
21
-3497.518799
0
LINE
8
Geometrie
62
5
6
CONTINUOUS
10
-4559.441895
20
-7952.291504
11
-4259.441895
21
-7652.291504
0
LINE
8
Geometrie
62
5
6
CONTINUOUS
10
-609.441956
20
-4002.291748
11
-509.441986
21
-3902.291748
0
LINE
8
Geometrie
62
5
6
CONTINUOUS
10
-333.958344
20
-3726.808105
11
-33.958336
21
-3426.808105
0
LINE
8
Geometrie
62
5
6
CONTINUOUS
10
-4630.152344
20
-7952.291504
11
-4330.152344
21
-7652.291504
0
LINE
8
Geometrie
62
5
6
CONTINUOUS
10
-680.152649
20
-4002.291748
11
-580.152649
21
-3902.291748
0
LINE
8
Geometrie
62
5
6
CONTINUOUS
10
-333.958344
20
-3656.097412
11
-33.958336
21
-3356.097412
0
LINE
8
Geometrie
62
5
6
CONTINUOUS
10
-4700.863281
20
-7952.291504
11
-4333.958496
21
-7585.386719
0
LINE
8
Geometrie
62
5
6
CONTINUOUS
10
-750.863342
20
-4002.291748
11
-650.863342
21
-3902.291748
0
LINE
8
Geometrie
62
5
6
CONTINUOUS
10
-333.958344
20
-3585.386719
11
-33.958336
21
-3285.386719
0
LINE
8
Geometrie
62
5
6
CONTINUOUS
10
-4771.573730
20
-7952.291504
11
-4471.573730
21
-7652.291504
0
LINE
8
Geometrie
62
5
6
CONTINUOUS
10
-4433.958496
20
-7614.676270
11
-4333.958496
21
-7514.676270
0
LINE
8
Geometrie
62
5
6
CONTINUOUS
10
-821.574036
20
-4002.291748
11
-721.574036
21
-3902.291748
0
LINE
8
Geometrie
62
5
6
CONTINUOUS
10
-333.958344
20
-3514.676025
11
-33.958336
21
-3214.676025
0
LINE
8
Geometrie
62
5
6
CONTINUOUS
10
-4842.284668
20
-7952.291504
11
-4542.284668
21
-7652.291504
0
LINE
8
Geometrie
62
5
6
CONTINUOUS
10
-4433.958496
20
-7543.965332
11
-4333.958496
21
-7443.965332
0
LINE
8
Geometrie
62
5
6
CONTINUOUS
10
-892.284668
20
-4002.291748
11
-792.284668
21
-3902.291748
0
LINE
8
Geometrie
62
5
6
CONTINUOUS
10
-333.958344
20
-3443.965332
11
-33.958336
21
-3143.965332
0
LINE
8
Geometrie
62
5
6
CONTINUOUS
10
-4912.995117
20
-7952.291504
11
-4612.995117
21
-7652.291504
0
LINE
8
Geometrie
62
5
6
CONTINUOUS
10
-4433.958496
20
-7473.254883
11
-4333.958496
21
-7373.254883
0
LINE
8
Geometrie
62
5
6
CONTINUOUS
10
-962.995361
20
-4002.291748
11
-862.995361
21
-3902.291748
0
LINE
8
Geometrie
62
5
6
CONTINUOUS
10
-333.958344
20
-3373.254639
11
-33.958336
21
-3073.254639
0
LINE
8
Geometrie
62
5
6
CONTINUOUS
10
-4983.705566
20
-7952.291504
11
-4683.705566
21
-7652.291504
0
LINE
8
Geometrie
62
5
6
CONTINUOUS
10
-4433.958496
20
-7402.544434
11
-4333.958496
21
-7302.544434
0
LINE
8
Geometrie
62
5
6
CONTINUOUS
10
-1033.706055
20
-4002.291748
11
-933.706055
21
-3902.291748
0
LINE
8
Geometrie
62
5
6
CONTINUOUS
10
-333.958344
20
-3302.543945
11
-33.958336
21
-3002.543945
0
LINE
8
Geometrie
62
5
6
CONTINUOUS
10
-5054.416504
20
-7952.291504
11
-4754.416504
21
-7652.291504
0
LINE
8
Geometrie
62
5
6
CONTINUOUS
10
-4433.958496
20
-7331.833496
11
-4333.958496
21
-7231.833496
0
LINE
8
Geometrie
62
5
6
CONTINUOUS
10
-1104.416748
20
-4002.291748
11
-1004.416748
21
-3902.291748
0
LINE
8
Geometrie
62
5
6
CONTINUOUS
10
-333.958344
20
-3231.833252
11
-33.958336
21
-2931.833252
0
LINE
8
Geometrie
62
5
6
CONTINUOUS
10
-5125.126953
20
-7952.291504
11
-4825.126953
21
-7652.291504
0
LINE
8
Geometrie
62
5
6
CONTINUOUS
10
-4433.958496
20
-7261.123047
11
-4333.958496
21
-7161.123047
0
LINE
8
Geometrie
62
5
6
CONTINUOUS
10
-1175.127441
20
-4002.291748
11
-1075.127441
21
-3902.291748
0
LINE
8
Geometrie
62
5
6
CONTINUOUS
10
-333.958344
20
-3161.122803
11
-33.958336
21
-2861.122559
0
LINE
8
Geometrie
62
5
6
CONTINUOUS
10
-5195.837891
20
-7952.291504
11
-4895.837891
21
-7652.291504
0
LINE
8
Geometrie
62
5
6
CONTINUOUS
10
-4433.958496
20
-7190.412109
11
-4333.958496
21
-7090.412109
0
LINE
8
Geometrie
62
5
6
CONTINUOUS
10
-1245.838135
20
-4002.291748
11
-1145.838135
21
-3902.291748
0
LINE
8
Geometrie
62
5
6
CONTINUOUS
10
-333.958344
20
-3090.412109
11
-33.958336
21
-2790.412109
0
LINE
8
Geometrie
62
5
6
CONTINUOUS
10
-5266.548340
20
-7952.291504
11
-4966.548340
21
-7652.291504
0
LINE
8
Geometrie
62
5
6
CONTINUOUS
10
-4433.958496
20
-7119.701660
11
-4333.958496
21
-7019.701660
0
LINE
8
Geometrie
62
5
6
CONTINUOUS
10
-1316.548706
20
-4002.291748
11
-1216.548706
21
-3902.291748
0
LINE
8
Geometrie
62
5
6
CONTINUOUS
10
-333.958344
20
-3019.701416
11
-33.958336
21
-2719.701416
0
LINE
8
Geometrie
62
5
6
CONTINUOUS
10
-5337.259277
20
-7952.291504
11
-5037.259277
21
-7652.291504
0
LINE
8
Geometrie
62
5
6
CONTINUOUS
10
-4433.958496
20
-7048.990723
11
-4333.958496
21
-6948.990723
0
LINE
8
Geometrie
62
5
6
CONTINUOUS
10
-1387.259399
20
-4002.291748
11
-1287.259399
21
-3902.291748
0
LINE
8
Geometrie
62
5
6
CONTINUOUS
10
-333.958344
20
-2948.990723
11
-33.958336
21
-2648.990723
0
LINE
8
Geometrie
62
5
6
CONTINUOUS
10
-5407.969727
20
-7952.291504
11
-5107.969727
21
-7652.291504
0
LINE
8
Geometrie
62
5
6
CONTINUOUS
10
-4433.958496
20
-6978.280273
11
-4333.958496
21
-6878.280273
0
LINE
8
Geometrie
62
5
6
CONTINUOUS
10
-1457.970093
20
-4002.291748
11
-1357.970093
21
-3902.291748
0
LINE
8
Geometrie
62
5
6
CONTINUOUS
10
-333.958344
20
-2878.280029
11
-33.958336
21
-2578.280029
0
LINE
8
Geometrie
62
5
6
CONTINUOUS
10
-5478.680664
20
-7952.291504
11
-5178.680664
21
-7652.291504
0
LINE
8
Geometrie
62
5
6
CONTINUOUS
10
-4433.958496
20
-6907.569336
11
-4333.958496
21
-6807.569336
0
LINE
8
Geometrie
62
5
6
CONTINUOUS
10
-1528.680786
20
-4002.291748
11
-1428.680786
21
-3902.291748
0
LINE
8
Geometrie
62
5
6
CONTINUOUS
10
-333.958344
20
-2807.569336
11
-33.958336
21
-2507.569336
0
LINE
8
Geometrie
62
5
6
CONTINUOUS
10
-5549.391113
20
-7952.291504
11
-5249.391113
21
-7652.291504
0
LINE
8
Geometrie
62
5
6
CONTINUOUS
10
-4433.958496
20
-6836.858887
11
-4333.958496
21
-6736.858887
0
LINE
8
Geometrie
62
5
6
CONTINUOUS
10
-1599.391479
20
-4002.291748
11
-1499.391479
21
-3902.291748
0
LINE
8
Geometrie
62
5
6
CONTINUOUS
10
-333.958344
20
-2736.858643
11
-33.958336
21
-2436.858643
0
LINE
8
Geometrie
62
5
6
CONTINUOUS
10
-5620.102051
20
-7952.291504
11
-5320.102051
21
-7652.291504
0
LINE
8
Geometrie
62
5
6
CONTINUOUS
10
-4433.958496
20
-6766.147949
11
-4333.958496
21
-6666.147949
0
LINE
8
Geometrie
62
5
6
CONTINUOUS
10
-1670.102173
20
-4002.291748
11
-1570.102173
21
-3902.291748
0
LINE
8
Geometrie
62
5
6
CONTINUOUS
10
-333.958344
20
-2666.147949
11
-33.958336
21
-2366.147949
0
LINE
8
Geometrie
62
5
6
CONTINUOUS
10
-5690.812500
20
-7952.291504
11
-5390.812500
21
-7652.291504
0
LINE
8
Geometrie
62
5
6
CONTINUOUS
10
-4433.958496
20
-6695.437500
11
-4333.958496
21
-6595.437500
0
LINE
8
Geometrie
62
5
6
CONTINUOUS
10
-1740.812866
20
-4002.291748
11
-1640.812866
21
-3902.291748
0
LINE
8
Geometrie
62
5
6
CONTINUOUS
10
-333.958344
20
-2595.437256
11
-33.958336
21
-2295.437256
0
LINE
8
Geometrie
62
5
6
CONTINUOUS
10
-5761.523438
20
-7952.291504
11
-5461.523438
21
-7652.291504
0
LINE
8
Geometrie
62
5
6
CONTINUOUS
10
-4433.958496
20
-6624.726563
11
-4333.958496
21
-6524.726563
0
LINE
8
Geometrie
62
5
6
CONTINUOUS
10
-1811.523560
20
-4002.291748
11
-1711.523560
21
-3902.291748
0
LINE
8
Geometrie
62
5
6
CONTINUOUS
10
-333.958344
20
-2524.726563
11
-33.958336
21
-2224.726563
0
LINE
8
Geometrie
62
5
6
CONTINUOUS
10
-5832.233887
20
-7952.291504
11
-5532.233887
21
-7652.291504
0
LINE
8
Geometrie
62
5
6
CONTINUOUS
10
-4433.958496
20
-6554.016113
11
-4333.958496
21
-6454.016113
0
LINE
8
Geometrie
62
5
6
CONTINUOUS
10
-1882.234131
20
-4002.291748
11
-1782.234131
21
-3902.291748
0
LINE
8
Geometrie
62
5
6
CONTINUOUS
10
-333.958344
20
-2454.015869
11
-33.958336
21
-2154.015869
0
LINE
8
Geometrie
62
5
6
CONTINUOUS
10
-5902.944824
20
-7952.291504
11
-5602.944824
21
-7652.291504
0
LINE
8
Geometrie
62
5
6
CONTINUOUS
10
-4433.958496
20
-6483.305176
11
-4333.958496
21
-6383.305176
0
LINE
8
Geometrie
62
5
6
CONTINUOUS
10
-1952.944824
20
-4002.291748
11
-1852.944824
21
-3902.291748
0
LINE
8
Geometrie
62
5
6
CONTINUOUS
10
-333.958344
20
-2383.305176
11
-33.958336
21
-2083.305176
0
LINE
8
Geometrie
62
5
6
CONTINUOUS
10
-5973.655273
20
-7952.291504
11
-5673.655273
21
-7652.291504
0
LINE
8
Geometrie
62
5
6
CONTINUOUS
10
-4433.958496
20
-6412.594727
11
-4333.958496
21
-6312.594727
0
LINE
8
Geometrie
62
5
6
CONTINUOUS
10
-2023.655518
20
-4002.291748
11
-1923.655518
21
-3902.291748
0
LINE
8
Geometrie
62
5
6
CONTINUOUS
10
-333.958344
20
-2312.594482
11
-33.958336
21
-2012.594482
0
LINE
8
Geometrie
62
5
6
CONTINUOUS
10
-6044.366211
20
-7952.291504
11
-5744.366211
21
-7652.291504
0
LINE
8
Geometrie
62
5
6
CONTINUOUS
10
-4433.958496
20
-6341.883789
11
-4333.958496
21
-6241.883789
0
LINE
8
Geometrie
62
5
6
CONTINUOUS
10
-2094.366211
20
-4002.291748
11
-1994.366211
21
-3902.291748
0
LINE
8
Geometrie
62
5
6
CONTINUOUS
10
-333.958344
20
-2241.883789
11
-33.958336
21
-1941.883911
0
LINE
8
Geometrie
62
5
6
CONTINUOUS
10
-6115.076660
20
-7952.291504
11
-5815.076660
21
-7652.291504
0
LINE
8
Geometrie
62
5
6
CONTINUOUS
10
-4433.958496
20
-6271.173340
11
-4333.958496
21
-6171.173340
0
LINE
8
Geometrie
62
5
6
CONTINUOUS
10
-2165.076904
20
-4002.291748
11
-2065.076904
21
-3902.291748
0
LINE
8
Geometrie
62
5
6
CONTINUOUS
10
-333.958344
20
-2171.173096
11
-33.958336
21
-1871.173218
0
LINE
8
Geometrie
62
5
6
CONTINUOUS
10
-6185.787109
20
-7952.291504
11
-5885.787109
21
-7652.291504
0
LINE
8
Geometrie
62
5
6
CONTINUOUS
10
-4433.958496
20
-6200.462891
11
-4333.958496
21
-6100.462891
0
LINE
8
Geometrie
62
5
6
CONTINUOUS
10
-2235.787598
20
-4002.291748
11
-2135.787598
21
-3902.291748
0
LINE
8
Geometrie
62
5
6
CONTINUOUS
10
-333.958344
20
-2100.462402
11
-33.958336
21
-1800.462524
0
LINE
8
Geometrie
62
5
6
CONTINUOUS
10
-6256.498047
20
-7952.291504
11
-5956.498047
21
-7652.291504
0
LINE
8
Geometrie
62
5
6
CONTINUOUS
10
-4433.958496
20
-6129.751953
11
-4333.958496
21
-6029.751953
0
LINE
8
Geometrie
62
5
6
CONTINUOUS
10
-2306.498291
20
-4002.291748
11
-2206.498291
21
-3902.291748
0
LINE
8
Geometrie
62
5
6
CONTINUOUS
10
-333.958344
20
-2029.751831
11
-33.958336
21
-1729.751831
0
LINE
8
Geometrie
62
5
6
CONTINUOUS
10
-6327.208496
20
-7952.291504
11
-6027.208496
21
-7652.291504
0
LINE
8
Geometrie
62
5
6
CONTINUOUS
10
-4433.958496
20
-6059.041504
11
-4333.958496
21
-5959.041504
0
LINE
8
Geometrie
62
5
6
CONTINUOUS
10
-2377.208984
20
-4002.291748
11
-2277.208984
21
-3902.291748
0
LINE
8
Geometrie
62
5
6
CONTINUOUS
10
-333.958344
20
-1959.041138
11
-33.958336
21
-1659.041138
0
LINE
8
Geometrie
62
5
6
CONTINUOUS
10
-6397.919434
20
-7952.291504
11
-6097.919434
21
-7652.291504
0
LINE
8
Geometrie
62
5
6
CONTINUOUS
10
-4433.958496
20
-5988.330566
11
-4333.958496
21
-5888.330566
0
LINE
8
Geometrie
62
5
6
CONTINUOUS
10
-2447.919678
20
-4002.291748
11
-2347.919678
21
-3902.291748
0
LINE
8
Geometrie
62
5
6
CONTINUOUS
10
-333.958344
20
-1888.330444
11
-33.958336
21
-1588.330444
0
LINE
8
Geometrie
62
5
6
CONTINUOUS
10
-6468.629883
20
-7952.291504
11
-6168.629883
21
-7652.291504
0
LINE
8
Geometrie
62
5
6
CONTINUOUS
10
-4433.958496
20
-5917.620117
11
-4333.958496
21
-5817.620117
0
LINE
8
Geometrie
62
5
6
CONTINUOUS
10
-2518.630371
20
-4002.291748
11
-2418.630371
21
-3902.291748
0
LINE
8
Geometrie
62
5
6
CONTINUOUS
10
-333.958344
20
-1817.619751
11
-33.958336
21
-1517.619751
0
LINE
8
Geometrie
62
5
6
CONTINUOUS
10
-6539.340820
20
-7952.291504
11
-6239.340820
21
-7652.291504
0
LINE
8
Geometrie
62
5
6
CONTINUOUS
10
-4433.958496
20
-5846.909180
11
-4333.958496
21
-5746.909180
0
LINE
8
Geometrie
62
5
6
CONTINUOUS
10
-2589.341064
20
-4002.291748
11
-2489.341064
21
-3902.291748
0
LINE
8
Geometrie
62
5
6
CONTINUOUS
10
-333.958344
20
-1746.909180
11
-33.958336
21
-1446.909058
0
LINE
8
Geometrie
62
5
6
CONTINUOUS
10
-6610.051270
20
-7952.291504
11
-6310.051270
21
-7652.291504
0
LINE
8
Geometrie
62
5
6
CONTINUOUS
10
-4433.958496
20
-5776.198730
11
-4333.958496
21
-5676.198730
0
LINE
8
Geometrie
62
5
6
CONTINUOUS
10
-2660.051758
20
-4002.291748
11
-2560.051758
21
-3902.291748
0
LINE
8
Geometrie
62
5
6
CONTINUOUS
10
-333.958344
20
-1676.198486
11
-33.958336
21
-1376.198486
0
LINE
8
Geometrie
62
5
6
CONTINUOUS
10
-6680.762207
20
-7952.291504
11
-6380.762207
21
-7652.291504
0
LINE
8
Geometrie
62
5
6
CONTINUOUS
10
-4433.958496
20
-5705.487793
11
-4333.958496
21
-5605.487793
0
LINE
8
Geometrie
62
5
6
CONTINUOUS
10
-2730.762207
20
-4002.291748
11
-2630.762207
21
-3902.291748
0
LINE
8
Geometrie
62
5
6
CONTINUOUS
10
-333.958344
20
-1605.487793
11
-33.958336
21
-1305.487793
0
LINE
8
Geometrie
62
5
6
CONTINUOUS
10
-6751.472656
20
-7952.291504
11
-6451.472656
21
-7652.291504
0
LINE
8
Geometrie
62
5
6
CONTINUOUS
10
-4433.958496
20
-5634.777344
11
-4333.958496
21
-5534.777344
0
LINE
8
Geometrie
62
5
6
CONTINUOUS
10
-3451.472656
20
-4652.291504
11
-3433.958252
21
-4634.776855
0
LINE
8
Geometrie
62
5
6
CONTINUOUS
10
-2801.472900
20
-4002.291748
11
-2701.472900
21
-3902.291748
0
LINE
8
Geometrie
62
5
6
CONTINUOUS
10
-333.958344
20
-1534.777100
11
-33.958336
21
-1234.777100
0
LINE
8
Geometrie
62
5
6
CONTINUOUS
10
-6822.183594
20
-7952.291504
11
-6522.183594
21
-7652.291504
0
LINE
8
Geometrie
62
5
6
CONTINUOUS
10
-4433.958496
20
-5564.066406
11
-4333.958496
21
-5464.066406
0
LINE
8
Geometrie
62
5
6
CONTINUOUS
10
-3522.183350
20
-4652.291504
11
-3433.958252
21
-4564.066406
0
LINE
8
Geometrie
62
5
6
CONTINUOUS
10
-2872.183594
20
-4002.291748
11
-2772.183594
21
-3902.291748
0
LINE
8
Geometrie
62
5
6
CONTINUOUS
10
-333.958344
20
-1464.066406
11
-33.958336
21
-1164.066406
0
LINE
8
Geometrie
62
5
6
CONTINUOUS
10
-6892.894043
20
-7952.291504
11
-6592.894043
21
-7652.291504
0
LINE
8
Geometrie
62
5
6
CONTINUOUS
10
-4433.958496
20
-5493.355957
11
-4333.958496
21
-5393.355957
0
LINE
8
Geometrie
62
5
6
CONTINUOUS
10
-3592.894043
20
-4652.291504
11
-3433.958252
21
-4493.355469
0
LINE
8
Geometrie
62
5
6
CONTINUOUS
10
-2942.894287
20
-4002.291748
11
-2842.894287
21
-3902.291748
0
LINE
8
Geometrie
62
5
6
CONTINUOUS
10
-333.958344
20
-1393.355713
11
-33.958336
21
-1093.355713
0
LINE
8
Geometrie
62
5
6
CONTINUOUS
10
-6963.604980
20
-7952.291504
11
-6663.604980
21
-7652.291504
0
LINE
8
Geometrie
62
5
6
CONTINUOUS
10
-4433.958496
20
-5422.645020
11
-4333.958496
21
-5322.645020
0
LINE
8
Geometrie
62
5
6
CONTINUOUS
10
-3663.604736
20
-4652.291504
11
-3563.604736
21
-4552.291504
0
LINE
8
Geometrie
62
5
6
CONTINUOUS
10
-3533.958252
20
-4522.645020
11
-3433.958252
21
-4422.645020
0
LINE
8
Geometrie
62
5
6
CONTINUOUS
10
-3013.604980
20
-4002.291748
11
-2913.604980
21
-3902.291748
0
LINE
8
Geometrie
62
5
6
CONTINUOUS
10
-333.958344
20
-1322.645020
11
-33.958336
21
-1022.645020
0
LINE
8
Geometrie
62
5
6
CONTINUOUS
10
-7034.315430
20
-7952.291504
11
-6734.315430
21
-7652.291504
0
LINE
8
Geometrie
62
5
6
CONTINUOUS
10
-4433.958496
20
-5351.934570
11
-4333.958496
21
-5251.934570
0
LINE
8
Geometrie
62
5
6
CONTINUOUS
10
-3734.315430
20
-4652.291504
11
-3634.315430
21
-4552.291504
0
LINE
8
Geometrie
62
5
6
CONTINUOUS
10
-3533.958252
20
-4451.934082
11
-3433.958252
21
-4351.934082
0
LINE
8
Geometrie
62
5
6
CONTINUOUS
10
-3084.315674
20
-4002.291748
11
-2984.315674
21
-3902.291748
0
LINE
8
Geometrie
62
5
6
CONTINUOUS
10
-333.958344
20
-1251.934326
11
-33.958336
21
-951.934387
0
LINE
8
Geometrie
62
5
6
CONTINUOUS
10
-7105.026367
20
-7952.291504
11
-6805.026367
21
-7652.291504
0
LINE
8
Geometrie
62
5
6
CONTINUOUS
10
-4433.958496
20
-5281.223633
11
-4333.958496
21
-5181.223633
0
LINE
8
Geometrie
62
5
6
CONTINUOUS
10
-3805.026123
20
-4652.291504
11
-3705.026123
21
-4552.291504
0
LINE
8
Geometrie
62
5
6
CONTINUOUS
10
-3533.958252
20
-4381.223633
11
-3433.958252
21
-4281.223633
0
LINE
8
Geometrie
62
5
6
CONTINUOUS
10
-3155.026367
20
-4002.291748
11
-3055.026367
21
-3902.291748
0
LINE
8
Geometrie
62
5
6
CONTINUOUS
10
-333.958344
20
-1181.223755
11
-33.958336
21
-881.223694
0
LINE
8
Geometrie
62
5
6
CONTINUOUS
10
-7175.736816
20
-7952.291504
11
-6875.736816
21
-7652.291504
0
LINE
8
Geometrie
62
5
6
CONTINUOUS
10
-4433.958496
20
-5210.513184
11
-4333.958496
21
-5110.513184
0
LINE
8
Geometrie
62
5
6
CONTINUOUS
10
-3875.736816
20
-4652.291504
11
-3775.736816
21
-4552.291504
0
LINE
8
Geometrie
62
5
6
CONTINUOUS
10
-3533.958252
20
-4310.512695
11
-3433.958252
21
-4210.512695
0
LINE
8
Geometrie
62
5
6
CONTINUOUS
10
-3225.737061
20
-4002.291748
11
-3125.737061
21
-3902.291748
0
LINE
8
Geometrie
62
5
6
CONTINUOUS
10
-333.958344
20
-1110.513062
11
-33.958336
21
-810.513000
0
LINE
8
Geometrie
62
5
6
CONTINUOUS
10
-7246.447266
20
-7952.291504
11
-6946.447266
21
-7652.291504
0
LINE
8
Geometrie
62
5
6
CONTINUOUS
10
-4433.958496
20
-5139.802734
11
-4333.958496
21
-5039.802734
0
LINE
8
Geometrie
62
5
6
CONTINUOUS
10
-3946.447510
20
-4652.291504
11
-3846.447510
21
-4552.291504
0
LINE
8
Geometrie
62
5
6
CONTINUOUS
10
-3533.958252
20
-4239.802246
11
-3433.958252
21
-4139.802246
0
LINE
8
Geometrie
62
5
6
CONTINUOUS
10
-3296.447754
20
-4002.291748
11
-3196.447754
21
-3902.291748
0
LINE
8
Geometrie
62
5
6
CONTINUOUS
10
-333.958344
20
-1039.802368
11
-33.958336
21
-739.802307
0
LINE
8
Geometrie
62
5
6
CONTINUOUS
10
-7317.158203
20
-7952.291504
11
-7017.158203
21
-7652.291504
0
LINE
8
Geometrie
62
5
6
CONTINUOUS
10
-4433.958496
20
-5069.091797
11
-4333.958496
21
-4969.091797
0
LINE
8
Geometrie
62
5
6
CONTINUOUS
10
-4017.158203
20
-4652.291504
11
-3917.158203
21
-4552.291504
0
LINE
8
Geometrie
62
5
6
CONTINUOUS
10
-3533.958252
20
-4169.091797
11
-3433.958252
21
-4069.091553
0
LINE
8
Geometrie
62
5
6
CONTINUOUS
10
-3367.158447
20
-4002.291748
11
-3267.158447
21
-3902.291748
0
LINE
8
Geometrie
62
5
6
CONTINUOUS
10
-333.958344
20
-969.091675
11
-33.958336
21
-669.091675
0
LINE
8
Geometrie
62
5
6
CONTINUOUS
10
-7387.868652
20
-7952.291504
11
-7087.868652
21
-7652.291504
0
LINE
8
Geometrie
62
5
6
CONTINUOUS
10
-4433.958496
20
-4998.381348
11
-4333.958496
21
-4898.381348
0
LINE
8
Geometrie
62
5
6
CONTINUOUS
10
-4087.868896
20
-4652.291504
11
-3987.868896
21
-4552.291504
0
LINE
8
Geometrie
62
5
6
CONTINUOUS
10
-3533.958252
20
-4098.380859
11
-3337.869141
21
-3902.291748
0
LINE
8
Geometrie
62
5
6
CONTINUOUS
10
-333.958344
20
-898.380981
11
-33.958336
21
-598.380981
0
LINE
8
Geometrie
62
5
6
CONTINUOUS
10
-7458.579590
20
-7952.291504
11
-7158.579590
21
-7652.291504
0
LINE
8
Geometrie
62
5
6
CONTINUOUS
10
-4433.958496
20
-4927.670410
11
-4333.958496
21
-4827.670410
0
LINE
8
Geometrie
62
5
6
CONTINUOUS
10
-4158.579590
20
-4652.291504
11
-4058.579590
21
-4552.291504
0
LINE
8
Geometrie
62
5
6
CONTINUOUS
10
-3533.958252
20
-4027.670166
11
-3408.579834
21
-3902.291748
0
LINE
8
Geometrie
62
5
6
CONTINUOUS
10
-333.958344
20
-827.670288
11
-33.958336
21
-527.670288
0
LINE
8
Geometrie
62
5
6
CONTINUOUS
10
-7529.290039
20
-7952.291504
11
-7229.290039
21
-7652.291504
0
LINE
8
Geometrie
62
5
6
CONTINUOUS
10
-4433.958496
20
-4856.959961
11
-4333.958496
21
-4756.959961
0
LINE
8
Geometrie
62
5
6
CONTINUOUS
10
-4229.290039
20
-4652.291504
11
-4129.290039
21
-4552.291504
0
LINE
8
Geometrie
62
5
6
CONTINUOUS
10
-3533.958252
20
-3956.959473
11
-3433.958252
21
-3856.959473
0
LINE
8
Geometrie
62
5
6
CONTINUOUS
10
-333.958344
20
-756.959656
11
-33.958336
21
-456.959625
0
LINE
8
Geometrie
62
5
6
CONTINUOUS
10
-7600.000977
20
-7952.291504
11
-7300.000977
21
-7652.291504
0
LINE
8
Geometrie
62
5
6
CONTINUOUS
10
-4433.958496
20
-4786.249023
11
-4333.958496
21
-4686.249023
0
LINE
8
Geometrie
62
5
6
CONTINUOUS
10
-4300.000977
20
-4652.291504
11
-4200.000977
21
-4552.291504
0
LINE
8
Geometrie
62
5
6
CONTINUOUS
10
-3533.958252
20
-3886.248779
11
-3433.958252
21
-3786.248779
0
LINE
8
Geometrie
62
5
6
CONTINUOUS
10
-333.958344
20
-686.248962
11
-33.958336
21
-386.248932
0
LINE
8
Geometrie
62
5
6
CONTINUOUS
10
-7670.711426
20
-7952.291504
11
-7370.711426
21
-7652.291504
0
LINE
8
Geometrie
62
5
6
CONTINUOUS
10
-4433.958496
20
-4715.538574
11
-4270.711426
21
-4552.291504
0
LINE
8
Geometrie
62
5
6
CONTINUOUS
10
-3533.958252
20
-3815.538086
11
-3433.958252
21
-3715.538086
0
LINE
8
Geometrie
62
5
6
CONTINUOUS
10
-333.958344
20
-615.538269
11
-33.958336
21
-315.538269
0
LINE
8
Geometrie
62
5
6
CONTINUOUS
10
-7741.422363
20
-7952.291504
11
-7441.422363
21
-7652.291504
0
LINE
8
Geometrie
62
5
6
CONTINUOUS
10
-4441.422363
20
-4652.291504
11
-4341.422363
21
-4552.291504
0
LINE
8
Geometrie
62
5
6
CONTINUOUS
10
-3533.958252
20
-3744.827393
11
-3433.958252
21
-3644.827393
0
LINE
8
Geometrie
62
5
6
CONTINUOUS
10
-333.958344
20
-544.827576
11
-33.958336
21
-244.827591
0
LINE
8
Geometrie
62
5
6
CONTINUOUS
10
-7812.132813
20
-7952.291504
11
-7512.132813
21
-7652.291504
0
LINE
8
Geometrie
62
5
6
CONTINUOUS
10
-4512.132813
20
-4652.291504
11
-4412.132813
21
-4552.291504
0
LINE
8
Geometrie
62
5
6
CONTINUOUS
10
-3533.958252
20
-3674.116943
11
-3433.958252
21
-3574.116943
0
LINE
8
Geometrie
62
5
6
CONTINUOUS
10
-333.958344
20
-474.116913
11
-33.958336
21
-174.116913
0
LINE
8
Geometrie
62
5
6
CONTINUOUS
10
-7882.843750
20
-7952.291504
11
-7582.843750
21
-7652.291504
0
LINE
8
Geometrie
62
5
6
CONTINUOUS
10
-4582.843750
20
-4652.291504
11
-4482.843750
21
-4552.291504
0
LINE
8
Geometrie
62
5
6
CONTINUOUS
10
-3533.958252
20
-3603.406250
11
-3433.958252
21
-3503.406250
0
LINE
8
Geometrie
62
5
6
CONTINUOUS
10
-333.958344
20
-403.406250
11
-33.958336
21
-103.406235
0
LINE
8
Geometrie
62
5
6
CONTINUOUS
10
-7953.554199
20
-7952.291504
11
-7653.554199
21
-7652.291504
0
LINE
8
Geometrie
62
5
6
CONTINUOUS
10
-4653.554199
20
-4652.291504
11
-4553.554199
21
-4552.291504
0
LINE
8
Geometrie
62
5
6
CONTINUOUS
10
-3533.958252
20
-3532.695557
11
-3433.958252
21
-3432.695557
0
LINE
8
Geometrie
62
5
6
CONTINUOUS
10
-333.958344
20
-332.695557
11
-33.958336
21
-32.695557
0
LINE
8
Geometrie
62
5
6
CONTINUOUS
10
-8024.265137
20
-7952.291504
11
-7724.265137
21
-7652.291504
0
LINE
8
Geometrie
62
5
6
CONTINUOUS
10
-4724.265137
20
-4652.291504
11
-4624.265137
21
-4552.291504
0
LINE
8
Geometrie
62
5
6
CONTINUOUS
10
-3533.958252
20
-3461.984863
11
-3433.958252
21
-3361.984863
0
LINE
8
Geometrie
62
5
6
CONTINUOUS
10
-333.958344
20
-261.984894
11
-33.958336
21
38.015121
0
LINE
8
Geometrie
62
5
6
CONTINUOUS
10
-8094.975586
20
-7952.291504
11
-7794.975586
21
-7652.291504
0
LINE
8
Geometrie
62
5
6
CONTINUOUS
10
-4794.975586
20
-4652.291504
11
-4694.975586
21
-4552.291504
0
LINE
8
Geometrie
62
5
6
CONTINUOUS
10
-3533.958252
20
-3391.274170
11
-3433.958252
21
-3291.274170
0
LINE
8
Geometrie
62
5
6
CONTINUOUS
10
-394.975800
20
-252.291672
11
-94.975807
21
47.708332
0
LINE
8
Geometrie
62
5
6
CONTINUOUS
10
-8165.686523
20
-7952.291504
11
-7865.686523
21
-7652.291504
0
LINE
8
Geometrie
62
5
6
CONTINUOUS
10
-4865.686523
20
-4652.291504
11
-4765.686523
21
-4552.291504
0
LINE
8
Geometrie
62
5
6
CONTINUOUS
10
-3565.686523
20
-3352.291748
11
-3465.686523
21
-3252.291748
0
LINE
8
Geometrie
62
5
6
CONTINUOUS
10
-465.686493
20
-252.291672
11
-165.686478
21
47.708332
0
LINE
8
Geometrie
62
5
6
CONTINUOUS
10
-8236.397461
20
-7952.291504
11
-7936.396973
21
-7652.291504
0
LINE
8
Geometrie
62
5
6
CONTINUOUS
10
-4936.396973
20
-4652.291504
11
-4836.396973
21
-4552.291504
0
LINE
8
Geometrie
62
5
6
CONTINUOUS
10
-3636.397217
20
-3352.291748
11
-3536.397217
21
-3252.291748
0
LINE
8
Geometrie
62
5
6
CONTINUOUS
10
-536.397156
20
-252.291672
11
-236.397156
21
47.708332
0
LINE
8
Geometrie
62
5
6
CONTINUOUS
10
-8307.107422
20
-7952.291504
11
-8007.107910
21
-7652.291504
0
LINE
8
Geometrie
62
5
6
CONTINUOUS
10
-5007.107910
20
-4652.291504
11
-4907.107910
21
-4552.291504
0
LINE
8
Geometrie
62
5
6
CONTINUOUS
10
-3707.107910
20
-3352.291748
11
-3607.107910
21
-3252.291748
0
LINE
8
Geometrie
62
5
6
CONTINUOUS
10
-607.107849
20
-252.291672
11
-307.107849
21
47.708332
0
LINE
8
Geometrie
62
5
6
CONTINUOUS
10
-8377.818359
20
-7952.291504
11
-8077.818359
21
-7652.291504
0
LINE
8
Geometrie
62
5
6
CONTINUOUS
10
-5077.818359
20
-4652.291504
11
-4977.818359
21
-4552.291504
0
LINE
8
Geometrie
62
5
6
CONTINUOUS
10
-3777.818604
20
-3352.291748
11
-3677.818604
21
-3252.291748
0
LINE
8
Geometrie
62
5
6
CONTINUOUS
10
-677.818542
20
-252.291672
11
-377.818512
21
47.708332
0
LINE
8
Geometrie
62
5
6
CONTINUOUS
10
-8448.529297
20
-7952.291504
11
-8148.528809
21
-7652.291504
0
LINE
8
Geometrie
62
5
6
CONTINUOUS
10
-5148.528809
20
-4652.291504
11
-5048.528809
21
-4552.291504
0
LINE
8
Geometrie
62
5
6
CONTINUOUS
10
-3848.529297
20
-3352.291748
11
-3748.529297
21
-3252.291748
0
LINE
8
Geometrie
62
5
6
CONTINUOUS
10
-748.529175
20
-252.291672
11
-448.529205
21
47.708332
0
LINE
8
Geometrie
62
5
6
CONTINUOUS
10
-8519.239258
20
-7952.291504
11
-8219.239258
21
-7652.291504
0
LINE
8
Geometrie
62
5
6
CONTINUOUS
10
-5219.239746
20
-4652.291504
11
-5119.239746
21
-4552.291504
0
LINE
8
Geometrie
62
5
6
CONTINUOUS
10
-3919.239990
20
-3352.291748
11
-3819.239990
21
-3252.291748
0
LINE
8
Geometrie
62
5
6
CONTINUOUS
10
-819.239868
20
-252.291672
11
-519.239868
21
47.708332
0
LINE
8
Geometrie
62
5
6
CONTINUOUS
10
-8589.950195
20
-7952.291504
11
-8289.950195
21
-7652.291504
0
LINE
8
Geometrie
62
5
6
CONTINUOUS
10
-5289.950195
20
-4652.291504
11
-5189.950195
21
-4552.291504
0
LINE
8
Geometrie
62
5
6
CONTINUOUS
10
-3989.950684
20
-3352.291748
11
-3889.950684
21
-3252.291748
0
LINE
8
Geometrie
62
5
6
CONTINUOUS
10
-889.950562
20
-252.291672
11
-589.950562
21
47.708332
0
LINE
8
Geometrie
62
5
6
CONTINUOUS
10
-8660.661133
20
-7952.291504
11
-8360.661133
21
-7652.291504
0
LINE
8
Geometrie
62
5
6
CONTINUOUS
10
-5360.661133
20
-4652.291504
11
-5260.661133
21
-4552.291504
0
LINE
8
Geometrie
62
5
6
CONTINUOUS
10
-4060.661377
20
-3352.291748
11
-3960.661377
21
-3252.291748
0
LINE
8
Geometrie
62
5
6
CONTINUOUS
10
-960.661255
20
-252.291672
11
-660.661255
21
47.708332
0
LINE
8
Geometrie
62
5
6
CONTINUOUS
10
-8731.372070
20
-7952.291504
11
-8431.372070
21
-7652.291504
0
LINE
8
Geometrie
62
5
6
CONTINUOUS
10
-5431.371582
20
-4652.291504
11
-5331.371582
21
-4552.291504
0
LINE
8
Geometrie
62
5
6
CONTINUOUS
10
-4131.372070
20
-3352.291748
11
-4031.372070
21
-3252.291748
0
LINE
8
Geometrie
62
5
6
CONTINUOUS
10
-1031.371948
20
-252.291672
11
-731.371887
21
47.708332
0
LINE
8
Geometrie
62
5
6
CONTINUOUS
10
-8802.082031
20
-7952.291504
11
-8433.958008
21
-7584.166992
0
LINE
8
Geometrie
62
5
6
CONTINUOUS
10
-5502.082520
20
-4652.291504
11
-5402.082520
21
-4552.291504
0
LINE
8
Geometrie
62
5
6
CONTINUOUS
10
-4202.082520
20
-3352.291748
11
-4102.082520
21
-3252.291748
0
LINE
8
Geometrie
62
5
6
CONTINUOUS
10
-1102.082642
20
-252.291672
11
-802.082581
21
47.708332
0
LINE
8
Geometrie
62
5
6
CONTINUOUS
10
-8872.792969
20
-7952.291504
11
-8572.792969
21
-7652.291504
0
LINE
8
Geometrie
62
5
6
CONTINUOUS
10
-8533.958008
20
-7613.456543
11
-8433.958008
21
-7513.456543
0
LINE
8
Geometrie
62
5
6
CONTINUOUS
10
-5572.792969
20
-4652.291504
11
-5472.792969
21
-4552.291504
0
LINE
8
Geometrie
62
5
6
CONTINUOUS
10
-4272.793457
20
-3352.291748
11
-4172.793457
21
-3252.291748
0
LINE
8
Geometrie
62
5
6
CONTINUOUS
10
-1172.793213
20
-252.291672
11
-872.793274
21
47.708332
0
LINE
8
Geometrie
62
5
6
CONTINUOUS
10
-8943.503906
20
-7952.291504
11
-8643.503906
21
-7652.291504
0
LINE
8
Geometrie
62
5
6
CONTINUOUS
10
-8533.958008
20
-7542.745605
11
-8433.958008
21
-7442.745605
0
LINE
8
Geometrie
62
5
6
CONTINUOUS
10
-5643.503906
20
-4652.291504
11
-5543.503906
21
-4552.291504
0
LINE
8
Geometrie
62
5
6
CONTINUOUS
10
-4343.503906
20
-3352.291748
11
-4243.503906
21
-3252.291748
0
LINE
8
Geometrie
62
5
6
CONTINUOUS
10
-1243.503906
20
-252.291672
11
-943.503967
21
47.708332
0
LINE
8
Geometrie
62
5
6
CONTINUOUS
10
-9014.214844
20
-7952.291504
11
-8714.214844
21
-7652.291504
0
LINE
8
Geometrie
62
5
6
CONTINUOUS
10
-8533.958008
20
-7472.035156
11
-8433.958008
21
-7372.035156
0
LINE
8
Geometrie
62
5
6
CONTINUOUS
10
-5714.214355
20
-4652.291504
11
-5614.214355
21
-4552.291504
0
LINE
8
Geometrie
62
5
6
CONTINUOUS
10
-4414.214844
20
-3352.291748
11
-4314.214844
21
-3252.291748
0
LINE
8
Geometrie
62
5
6
CONTINUOUS
10
-1314.214600
20
-252.291672
11
-1014.214600
21
47.708332
0
LINE
8
Geometrie
62
5
6
CONTINUOUS
10
-9084.924805
20
-7952.291504
11
-8784.924805
21
-7652.291504
0
LINE
8
Geometrie
62
5
6
CONTINUOUS
10
-8533.958008
20
-7401.324219
11
-8433.958008
21
-7301.324219
0
LINE
8
Geometrie
62
5
6
CONTINUOUS
10
-5784.925293
20
-4652.291504
11
-5684.925293
21
-4552.291504
0
LINE
8
Geometrie
62
5
6
CONTINUOUS
10
-4484.925293
20
-3352.291748
11
-4333.958496
21
-3201.324951
0
LINE
8
Geometrie
62
5
6
CONTINUOUS
10
-1384.925293
20
-252.291672
11
-1084.925293
21
47.708332
0
LINE
8
Geometrie
62
5
6
CONTINUOUS
10
-9155.635742
20
-7952.291504
11
-8855.635742
21
-7652.291504
0
LINE
8
Geometrie
62
5
6
CONTINUOUS
10
-8533.958008
20
-7330.613770
11
-8433.958008
21
-7230.613770
0
LINE
8
Geometrie
62
5
6
CONTINUOUS
10
-5855.635742
20
-4652.291504
11
-5755.635742
21
-4552.291504
0
LINE
8
Geometrie
62
5
6
CONTINUOUS
10
-4555.636230
20
-3352.291748
11
-4455.636230
21
-3252.291748
0
LINE
8
Geometrie
62
5
6
CONTINUOUS
10
-4433.958496
20
-3230.614258
11
-4333.958496
21
-3130.614258
0
LINE
8
Geometrie
62
5
6
CONTINUOUS
10
-1455.635986
20
-252.291672
11
-1155.635986
21
47.708332
0
LINE
8
Geometrie
62
5
6
CONTINUOUS
10
-9226.346680
20
-7952.291504
11
-8926.346680
21
-7652.291504
0
LINE
8
Geometrie
62
5
6
CONTINUOUS
10
-8533.958008
20
-7259.902832
11
-8433.958008
21
-7159.902832
0
LINE
8
Geometrie
62
5
6
CONTINUOUS
10
-5926.346680
20
-4652.291504
11
-5826.346680
21
-4552.291504
0
LINE
8
Geometrie
62
5
6
CONTINUOUS
10
-4626.346680
20
-3352.291748
11
-4526.346680
21
-3252.291748
0
LINE
8
Geometrie
62
5
6
CONTINUOUS
10
-4433.958496
20
-3159.903564
11
-4333.958496
21
-3059.903564
0
LINE
8
Geometrie
62
5
6
CONTINUOUS
10
-1526.346680
20
-252.291672
11
-1226.346680
21
47.708332
0
LINE
8
Geometrie
62
5
6
CONTINUOUS
10
-9297.057617
20
-7952.291504
11
-8997.057617
21
-7652.291504
0
LINE
8
Geometrie
62
5
6
CONTINUOUS
10
-8533.958008
20
-7189.192383
11
-8433.958008
21
-7089.192383
0
LINE
8
Geometrie
62
5
6
CONTINUOUS
10
-5997.057129
20
-4652.291504
11
-5897.057129
21
-4552.291504
0
LINE
8
Geometrie
62
5
6
CONTINUOUS
10
-4697.057617
20
-3352.291748
11
-4597.057617
21
-3252.291748
0
LINE
8
Geometrie
62
5
6
CONTINUOUS
10
-4433.958496
20
-3089.192871
11
-4333.958496
21
-2989.192871
0
LINE
8
Geometrie
62
5
6
CONTINUOUS
10
-1597.057373
20
-252.291672
11
-1297.057373
21
47.708332
0
LINE
8
Geometrie
62
5
6
CONTINUOUS
10
-9367.767578
20
-7952.291504
11
-9067.767578
21
-7652.291504
0
LINE
8
Geometrie
62
5
6
CONTINUOUS
10
-8533.958008
20
-7118.481445
11
-8433.958008
21
-7018.481445
0
LINE
8
Geometrie
62
5
6
CONTINUOUS
10
-6067.768066
20
-4652.291504
11
-5967.768066
21
-4552.291504
0
LINE
8
Geometrie
62
5
6
CONTINUOUS
10
-4767.768066
20
-3352.291748
11
-4667.768066
21
-3252.291748
0
LINE
8
Geometrie
62
5
6
CONTINUOUS
10
-4433.958496
20
-3018.482178
11
-4333.958496
21
-2918.482178
0
LINE
8
Geometrie
62
5
6
CONTINUOUS
10
-1667.768066
20
-252.291672
11
-1367.768066
21
47.708332
0
LINE
8
Geometrie
62
5
6
CONTINUOUS
10
-9438.478516
20
-7952.291504
11
-9138.478516
21
-7652.291504
0
LINE
8
Geometrie
62
5
6
CONTINUOUS
10
-8533.958008
20
-7047.770996
11
-8433.958008
21
-6947.770996
0
LINE
8
Geometrie
62
5
6
CONTINUOUS
10
-6138.478516
20
-4652.291504
11
-6038.478516
21
-4552.291504
0
LINE
8
Geometrie
62
5
6
CONTINUOUS
10
-4838.479004
20
-3352.291748
11
-4738.479004
21
-3252.291748
0
LINE
8
Geometrie
62
5
6
CONTINUOUS
10
-4433.958496
20
-2947.771484
11
-4333.958496
21
-2847.771484
0
LINE
8
Geometrie
62
5
6
CONTINUOUS
10
-1738.478638
20
-252.291672
11
-1438.478638
21
47.708332
0
LINE
8
Geometrie
62
5
6
CONTINUOUS
10
-9509.189453
20
-7952.291504
11
-9209.189453
21
-7652.291504
0
LINE
8
Geometrie
62
5
6
CONTINUOUS
10
-8533.958008
20
-6977.060547
11
-8433.958008
21
-6877.060547
0
LINE
8
Geometrie
62
5
6
CONTINUOUS
10
-6209.188965
20
-4652.291504
11
-6109.188965
21
-4552.291504
0
LINE
8
Geometrie
62
5
6
CONTINUOUS
10
-4909.189453
20
-3352.291748
11
-4809.189453
21
-3252.291748
0
LINE
8
Geometrie
62
5
6
CONTINUOUS
10
-4433.958496
20
-2877.060791
11
-4333.958496
21
-2777.060791
0
LINE
8
Geometrie
62
5
6
CONTINUOUS
10
-1809.189331
20
-252.291672
11
-1509.189331
21
47.708332
0
LINE
8
Geometrie
62
5
6
CONTINUOUS
10
-9579.899414
20
-7952.291504
11
-9279.899414
21
-7652.291504
0
LINE
8
Geometrie
62
5
6
CONTINUOUS
10
-8533.958008
20
-6906.349609
11
-8433.958008
21
-6806.349609
0
LINE
8
Geometrie
62
5
6
CONTINUOUS
10
-6279.899902
20
-4652.291504
11
-6179.899902
21
-4552.291504
0
LINE
8
Geometrie
62
5
6
CONTINUOUS
10
-4979.899902
20
-3352.291748
11
-4879.899902
21
-3252.291748
0
LINE
8
Geometrie
62
5
6
CONTINUOUS
10
-4433.958496
20
-2806.350098
11
-4333.958496
21
-2706.350098
0
LINE
8
Geometrie
62
5
6
CONTINUOUS
10
-1879.900024
20
-252.291672
11
-1579.900024
21
47.708332
0
LINE
8
Geometrie
62
5
6
CONTINUOUS
10
-9650.610352
20
-7952.291504
11
-9350.610352
21
-7652.291504
0
LINE
8
Geometrie
62
5
6
CONTINUOUS
10
-8533.958008
20
-6835.639160
11
-8433.958008
21
-6735.639160
0
LINE
8
Geometrie
62
5
6
CONTINUOUS
10
-6350.610352
20
-4652.291504
11
-6250.610352
21
-4552.291504
0
LINE
8
Geometrie
62
5
6
CONTINUOUS
10
-5050.610840
20
-3352.291748
11
-4950.610840
21
-3252.291748
0
LINE
8
Geometrie
62
5
6
CONTINUOUS
10
-4433.958496
20
-2735.639404
11
-4333.958496
21
-2635.639404
0
LINE
8
Geometrie
62
5
6
CONTINUOUS
10
-1950.610718
20
-252.291672
11
-1650.610718
21
47.708332
0
LINE
8
Geometrie
62
5
6
CONTINUOUS
10
-9721.321289
20
-7952.291504
11
-9421.321289
21
-7652.291504
0
LINE
8
Geometrie
62
5
6
CONTINUOUS
10
-8533.958008
20
-6764.928223
11
-8433.958008
21
-6664.928223
0
LINE
8
Geometrie
62
5
6
CONTINUOUS
10
-6421.321289
20
-4652.291504
11
-6321.321289
21
-4552.291504
0
LINE
8
Geometrie
62
5
6
CONTINUOUS
10
-5121.321289
20
-3352.291748
11
-5021.321289
21
-3252.291748
0
LINE
8
Geometrie
62
5
6
CONTINUOUS
10
-4433.958496
20
-2664.928711
11
-4333.958496
21
-2564.928711
0
LINE
8
Geometrie
62
5
6
CONTINUOUS
10
-2021.321411
20
-252.291672
11
-1721.321411
21
47.708332
0
LINE
8
Geometrie
62
5
6
CONTINUOUS
10
-9792.032227
20
-7952.291504
11
-9492.032227
21
-7652.291504
0
LINE
8
Geometrie
62
5
6
CONTINUOUS
10
-8533.958008
20
-6694.217773
11
-8433.958008
21
-6594.217773
0
LINE
8
Geometrie
62
5
6
CONTINUOUS
10
-6492.031738
20
-4652.291504
11
-6392.031738
21
-4552.291504
0
LINE
8
Geometrie
62
5
6
CONTINUOUS
10
-5192.032227
20
-3352.291748
11
-5092.032227
21
-3252.291748
0
LINE
8
Geometrie
62
5
6
CONTINUOUS
10
-4433.958496
20
-2594.218018
11
-4333.958496
21
-2494.218018
0
LINE
8
Geometrie
62
5
6
CONTINUOUS
10
-2092.031982
20
-252.291672
11
-1792.032104
21
47.708332
0
LINE
8
Geometrie
62
5
6
CONTINUOUS
10
-9862.742188
20
-7952.291504
11
-9562.742188
21
-7652.291504
0
LINE
8
Geometrie
62
5
6
CONTINUOUS
10
-8533.958008
20
-6623.506836
11
-8433.958008
21
-6523.506836
0
LINE
8
Geometrie
62
5
6
CONTINUOUS
10
-6562.742676
20
-4652.291504
11
-6462.742676
21
-4552.291504
0
LINE
8
Geometrie
62
5
6
CONTINUOUS
10
-5262.742676
20
-3352.291748
11
-5162.742676
21
-3252.291748
0
LINE
8
Geometrie
62
5
6
CONTINUOUS
10
-4433.958496
20
-2523.507324
11
-4333.958496
21
-2423.507324
0
LINE
8
Geometrie
62
5
6
CONTINUOUS
10
-2162.742676
20
-252.291672
11
-1862.742798
21
47.708332
0
LINE
8
Geometrie
62
5
6
CONTINUOUS
10
-9933.453125
20
-7952.291504
11
-9633.453125
21
-7652.291504
0
LINE
8
Geometrie
62
5
6
CONTINUOUS
10
-8533.958008
20
-6552.796387
11
-8433.958008
21
-6452.796387
0
LINE
8
Geometrie
62
5
6
CONTINUOUS
10
-6633.453125
20
-4652.291504
11
-6533.453125
21
-4552.291504
0
LINE
8
Geometrie
62
5
6
CONTINUOUS
10
-5333.453613
20
-3352.291748
11
-5233.453613
21
-3252.291748
0
LINE
8
Geometrie
62
5
6
CONTINUOUS
10
-4433.958496
20
-2452.796631
11
-4333.958496
21
-2352.796631
0
LINE
8
Geometrie
62
5
6
CONTINUOUS
10
-2233.453369
20
-252.291672
11
-1933.453491
21
47.708332
0
LINE
8
Geometrie
62
5
6
CONTINUOUS
10
-10004.164063
20
-7952.291504
11
-9704.164063
21
-7652.291504
0
LINE
8
Geometrie
62
5
6
CONTINUOUS
10
-8533.958008
20
-6482.085449
11
-8433.958008
21
-6382.085449
0
LINE
8
Geometrie
62
5
6
CONTINUOUS
10
-6704.164063
20
-4652.291504
11
-6604.164063
21
-4552.291504
0
LINE
8
Geometrie
62
5
6
CONTINUOUS
10
-5404.164063
20
-3352.291748
11
-5304.164063
21
-3252.291748
0
LINE
8
Geometrie
62
5
6
CONTINUOUS
10
-4433.958496
20
-2382.085938
11
-4333.958496
21
-2282.085938
0
LINE
8
Geometrie
62
5
6
CONTINUOUS
10
-2304.164063
20
-252.291672
11
-2004.164063
21
47.708332
0
LINE
8
Geometrie
62
5
6
CONTINUOUS
10
-10074.875000
20
-7952.291504
11
-9774.875000
21
-7652.291504
0
LINE
8
Geometrie
62
5
6
CONTINUOUS
10
-8533.958008
20
-6411.375000
11
-8433.958008
21
-6311.375000
0
LINE
8
Geometrie
62
5
6
CONTINUOUS
10
-6774.874512
20
-4652.291504
11
-6674.874512
21
-4552.291504
0
LINE
8
Geometrie
62
5
6
CONTINUOUS
10
-5474.875000
20
-3352.291748
11
-5374.875000
21
-3252.291748
0
LINE
8
Geometrie
62
5
6
CONTINUOUS
10
-4433.958496
20
-2311.375488
11
-4333.958496
21
-2211.375488
0
LINE
8
Geometrie
62
5
6
CONTINUOUS
10
-2374.874756
20
-252.291672
11
-2074.874756
21
47.708332
0
LINE
8
Geometrie
62
5
6
CONTINUOUS
10
-10145.584961
20
-7952.291504
11
-9845.584961
21
-7652.291504
0
LINE
8
Geometrie
62
5
6
CONTINUOUS
10
-8533.958008
20
-6340.664063
11
-8433.958008
21
-6240.664063
0
LINE
8
Geometrie
62
5
6
CONTINUOUS
10
-6845.585449
20
-4652.291504
11
-6745.585449
21
-4552.291504
0
LINE
8
Geometrie
62
5
6
CONTINUOUS
10
-5545.585449
20
-3352.291748
11
-5445.585449
21
-3252.291748
0
LINE
8
Geometrie
62
5
6
CONTINUOUS
10
-4433.958496
20
-2240.664795
11
-4333.958496
21
-2140.664795
0
LINE
8
Geometrie
62
5
6
CONTINUOUS
10
-2445.585449
20
-252.291672
11
-2145.585449
21
47.708332
0
LINE
8
Geometrie
62
5
6
CONTINUOUS
10
-10216.295898
20
-7952.291504
11
-9916.295898
21
-7652.291504
0
LINE
8
Geometrie
62
5
6
CONTINUOUS
10
-8533.958008
20
-6269.953613
11
-8433.958008
21
-6169.953613
0
LINE
8
Geometrie
62
5
6
CONTINUOUS
10
-6916.295898
20
-4652.291504
11
-6816.295898
21
-4552.291504
0
LINE
8
Geometrie
62
5
6
CONTINUOUS
10
-5616.296387
20
-3352.291748
11
-5516.296387
21
-3252.291748
0
LINE
8
Geometrie
62
5
6
CONTINUOUS
10
-4433.958496
20
-2169.954102
11
-4333.958496
21
-2069.954102
0
LINE
8
Geometrie
62
5
6
CONTINUOUS
10
-2516.296143
20
-252.291672
11
-2216.296143
21
47.708332
0
LINE
8
Geometrie
62
5
6
CONTINUOUS
10
-10287.006836
20
-7952.291504
11
-9987.006836
21
-7652.291504
0
LINE
8
Geometrie
62
5
6
CONTINUOUS
10
-8533.958008
20
-6199.242676
11
-8433.958008
21
-6099.242676
0
LINE
8
Geometrie
62
5
6
CONTINUOUS
10
-6987.006836
20
-4652.291504
11
-6887.006836
21
-4552.291504
0
LINE
8
Geometrie
62
5
6
CONTINUOUS
10
-5687.006836
20
-3352.291748
11
-5587.006836
21
-3252.291748
0
LINE
8
Geometrie
62
5
6
CONTINUOUS
10
-4433.958496
20
-2099.243408
11
-4333.958496
21
-1999.243286
0
LINE
8
Geometrie
62
5
6
CONTINUOUS
10
-2587.006836
20
-252.291672
11
-2287.006836
21
47.708332
0
LINE
8
Geometrie
62
5
6
CONTINUOUS
10
-10357.717773
20
-7952.291504
11
-10057.717773
21
-7652.291504
0
LINE
8
Geometrie
62
5
6
CONTINUOUS
10
-8533.958008
20
-6128.532227
11
-8433.958008
21
-6028.532227
0
LINE
8
Geometrie
62
5
6
CONTINUOUS
10
-7057.717285
20
-4652.291504
11
-6957.717285
21
-4552.291504
0
LINE
8
Geometrie
62
5
6
CONTINUOUS
10
-5757.717773
20
-3352.291748
11
-5657.717773
21
-3252.291748
0
LINE
8
Geometrie
62
5
6
CONTINUOUS
10
-4433.958496
20
-2028.532715
11
-4333.958496
21
-1928.532715
0
LINE
8
Geometrie
62
5
6
CONTINUOUS
10
-2657.717529
20
-252.291672
11
-2357.717529
21
47.708332
0
LINE
8
Geometrie
62
5
6
CONTINUOUS
10
-10428.427734
20
-7952.291504
11
-10128.427734
21
-7652.291504
0
LINE
8
Geometrie
62
5
6
CONTINUOUS
10
-8533.958008
20
-6057.821289
11
-8433.958008
21
-5957.821289
0
LINE
8
Geometrie
62
5
6
CONTINUOUS
10
-7128.428223
20
-4652.291504
11
-7028.428223
21
-4552.291504
0
LINE
8
Geometrie
62
5
6
CONTINUOUS
10
-5828.428223
20
-3352.291748
11
-5728.428223
21
-3252.291748
0
LINE
8
Geometrie
62
5
6
CONTINUOUS
10
-4433.958496
20
-1957.822021
11
-4333.958496
21
-1857.822021
0
LINE
8
Geometrie
62
5
6
CONTINUOUS
10
-2728.428223
20
-252.291672
11
-2428.428223
21
47.708332
0
LINE
8
Geometrie
62
5
6
CONTINUOUS
10
-10499.138672
20
-7952.291504
11
-10199.138672
21
-7652.291504
0
LINE
8
Geometrie
62
5
6
CONTINUOUS
10
-8533.958008
20
-5987.110840
11
-8433.958008
21
-5887.110840
0
LINE
8
Geometrie
62
5
6
CONTINUOUS
10
-7199.138672
20
-4652.291504
11
-7099.138672
21
-4552.291504
0
LINE
8
Geometrie
62
5
6
CONTINUOUS
10
-5899.139160
20
-3352.291748
11
-5799.139160
21
-3252.291748
0
LINE
8
Geometrie
62
5
6
CONTINUOUS
10
-4433.958496
20
-1887.111328
11
-4333.958496
21
-1787.111328
0
LINE
8
Geometrie
62
5
6
CONTINUOUS
10
-2799.138916
20
-252.291672
11
-2499.138916
21
47.708332
0
LINE
8
Geometrie
62
5
6
CONTINUOUS
10
-10569.849609
20
-7952.291504
11
-10269.849609
21
-7652.291504
0
LINE
8
Geometrie
62
5
6
CONTINUOUS
10
-8533.958008
20
-5916.399902
11
-8433.958008
21
-5816.399902
0
LINE
8
Geometrie
62
5
6
CONTINUOUS
10
-7269.849609
20
-4652.291504
11
-7169.849609
21
-4552.291504
0
LINE
8
Geometrie
62
5
6
CONTINUOUS
10
-5969.849609
20
-3352.291748
11
-5869.849609
21
-3252.291748
0
LINE
8
Geometrie
62
5
6
CONTINUOUS
10
-4433.958496
20
-1816.400635
11
-4333.958496
21
-1716.400635
0
LINE
8
Geometrie
62
5
6
CONTINUOUS
10
-2869.849609
20
-252.291672
11
-2569.849609
21
47.708332
0
LINE
8
Geometrie
62
5
6
CONTINUOUS
10
-10640.559570
20
-7952.291504
11
-10333.958008
21
-7645.689453
0
LINE
8
Geometrie
62
5
6
CONTINUOUS
10
-8533.958008
20
-5845.689453
11
-8433.958008
21
-5745.689453
0
LINE
8
Geometrie
62
5
6
CONTINUOUS
10
-7340.560059
20
-4652.291504
11
-7240.560059
21
-4552.291504
0
LINE
8
Geometrie
62
5
6
CONTINUOUS
10
-6040.560059
20
-3352.291748
11
-5940.560059
21
-3252.291748
0
LINE
8
Geometrie
62
5
6
CONTINUOUS
10
-4433.958496
20
-1745.689941
11
-4333.958496
21
-1645.689941
0
LINE
8
Geometrie
62
5
6
CONTINUOUS
10
-2940.560303
20
-252.291672
11
-2640.560303
21
47.708332
0
LINE
8
Geometrie
62
5
6
CONTINUOUS
10
-10711.270508
20
-7952.291504
11
-10333.958008
21
-7574.979004
0
LINE
8
Geometrie
62
5
6
CONTINUOUS
10
-8533.958008
20
-5774.979004
11
-8433.958008
21
-5674.979004
0
LINE
8
Geometrie
62
5
6
CONTINUOUS
10
-7411.270508
20
-4652.291504
11
-7311.270508
21
-4552.291504
0
LINE
8
Geometrie
62
5
6
CONTINUOUS
10
-6111.270996
20
-3352.291748
11
-6011.270996
21
-3252.291748
0
LINE
8
Geometrie
62
5
6
CONTINUOUS
10
-4433.958496
20
-1674.979248
11
-4333.958496
21
-1574.979248
0
LINE
8
Geometrie
62
5
6
CONTINUOUS
10
-3011.270996
20
-252.291672
11
-2711.270996
21
47.708332
0
LINE
8
Geometrie
62
5
6
CONTINUOUS
10
-10781.981445
20
-7952.291504
11
-10481.981445
21
-7652.291504
0
LINE
8
Geometrie
62
5
6
CONTINUOUS
10
-10433.958008
20
-7604.268066
11
-10333.958008
21
-7504.268066
0
LINE
8
Geometrie
62
5
6
CONTINUOUS
10
-8533.958008
20
-5704.268066
11
-8433.958008
21
-5604.268066
0
LINE
8
Geometrie
62
5
6
CONTINUOUS
10
-7481.981445
20
-4652.291504
11
-7381.981445
21
-4552.291504
0
LINE
8
Geometrie
62
5
6
CONTINUOUS
10
-6181.981445
20
-3352.291748
11
-6081.981445
21
-3252.291748
0
LINE
8
Geometrie
62
5
6
CONTINUOUS
10
-4433.958496
20
-1604.268555
11
-4333.958496
21
-1504.268555
0
LINE
8
Geometrie
62
5
6
CONTINUOUS
10
-3081.981689
20
-252.291672
11
-2781.981689
21
47.708332
0
LINE
8
Geometrie
62
5
6
CONTINUOUS
10
-10852.692383
20
-7952.291504
11
-10552.692383
21
-7652.291504
0
LINE
8
Geometrie
62
5
6
CONTINUOUS
10
-10433.958008
20
-7533.557617
11
-10333.958008
21
-7433.557617
0
LINE
8
Geometrie
62
5
6
CONTINUOUS
10
-8533.958008
20
-5633.557617
11
-8433.958008
21
-5533.557617
0
LINE
8
Geometrie
62
5
6
CONTINUOUS
10
-7552.691895
20
-4652.291504
11
-7452.691895
21
-4552.291504
0
LINE
8
Geometrie
62
5
6
CONTINUOUS
10
-6252.692383
20
-3352.291748
11
-6152.692383
21
-3252.291748
0
LINE
8
Geometrie
62
5
6
CONTINUOUS
10
-4433.958496
20
-1533.557861
11
-4333.958496
21
-1433.557861
0
LINE
8
Geometrie
62
5
6
CONTINUOUS
10
-3152.692139
20
-252.291672
11
-2852.692139
21
47.708332
0
LINE
8
Geometrie
62
5
6
CONTINUOUS
10
-10923.402344
20
-7952.291504
11
-10623.402344
21
-7652.291504
0
LINE
8
Geometrie
62
5
6
CONTINUOUS
10
-10433.958008
20
-7462.846680
11
-10333.958008
21
-7362.846680
0
LINE
8
Geometrie
62
5
6
CONTINUOUS
10
-8533.958008
20
-5562.846680
11
-8433.958008
21
-5462.846680
0
LINE
8
Geometrie
62
5
6
CONTINUOUS
10
-7623.402832
20
-4652.291504
11
-7523.402832
21
-4552.291504
0
LINE
8
Geometrie
62
5
6
CONTINUOUS
10
-6323.402832
20
-3352.291748
11
-6223.402832
21
-3252.291748
0
LINE
8
Geometrie
62
5
6
CONTINUOUS
10
-4433.958496
20
-1462.847290
11
-4333.958496
21
-1362.847290
0
LINE
8
Geometrie
62
5
6
CONTINUOUS
10
-3223.402832
20
-252.291672
11
-2923.402832
21
47.708332
0
LINE
8
Geometrie
62
5
6
CONTINUOUS
10
-10994.113281
20
-7952.291504
11
-10694.113281
21
-7652.291504
0
LINE
8
Geometrie
62
5
6
CONTINUOUS
10
-10433.958008
20
-7392.136230
11
-10333.958008
21
-7292.136230
0
LINE
8
Geometrie
62
5
6
CONTINUOUS
10
-8533.958008
20
-5492.136230
11
-8433.958008
21
-5392.136230
0
LINE
8
Geometrie
62
5
6
CONTINUOUS
10
-7694.113281
20
-4652.291504
11
-7594.113281
21
-4552.291504
0
LINE
8
Geometrie
62
5
6
CONTINUOUS
10
-6394.113770
20
-3352.291748
11
-6294.113770
21
-3252.291748
0
LINE
8
Geometrie
62
5
6
CONTINUOUS
10
-4433.958496
20
-1392.136597
11
-4333.958496
21
-1292.136597
0
LINE
8
Geometrie
62
5
6
CONTINUOUS
10
-3294.113525
20
-252.291672
11
-2994.113525
21
47.708332
0
LINE
8
Geometrie
62
5
6
CONTINUOUS
10
-11064.824219
20
-7952.291504
11
-10764.824219
21
-7652.291504
0
LINE
8
Geometrie
62
5
6
CONTINUOUS
10
-10433.958008
20
-7321.425293
11
-10333.958008
21
-7221.425293
0
LINE
8
Geometrie
62
5
6
CONTINUOUS
10
-8533.958008
20
-5421.425293
11
-8433.958008
21
-5321.425293
0
LINE
8
Geometrie
62
5
6
CONTINUOUS
10
-7764.824219
20
-4652.291504
11
-7664.824219
21
-4552.291504
0
LINE
8
Geometrie
62
5
6
CONTINUOUS
10
-6464.824219
20
-3352.291748
11
-6364.824219
21
-3252.291748
0
LINE
8
Geometrie
62
5
6
CONTINUOUS
10
-4433.958496
20
-1321.425903
11
-4333.958496
21
-1221.425903
0
LINE
8
Geometrie
62
5
6
CONTINUOUS
10
-3364.824219
20
-252.291672
11
-3064.824219
21
47.708332
0
LINE
8
Geometrie
62
5
6
CONTINUOUS
10
-11135.535156
20
-7952.291504
11
-10835.535156
21
-7652.291504
0
LINE
8
Geometrie
62
5
6
CONTINUOUS
10
-10433.958008
20
-7250.714844
11
-10333.958008
21
-7150.714844
0
LINE
8
Geometrie
62
5
6
CONTINUOUS
10
-8533.958008
20
-5350.714844
11
-8433.958008
21
-5250.714844
0
LINE
8
Geometrie
62
5
6
CONTINUOUS
10
-7835.534668
20
-4652.291504
11
-7735.534668
21
-4552.291504
0
LINE
8
Geometrie
62
5
6
CONTINUOUS
10
-6535.535156
20
-3352.291748
11
-6435.535156
21
-3252.291748
0
LINE
8
Geometrie
62
5
6
CONTINUOUS
10
-4433.958496
20
-1250.715210
11
-4333.958496
21
-1150.715210
0
LINE
8
Geometrie
62
5
6
CONTINUOUS
10
-3435.534912
20
-252.291672
11
-3135.534912
21
47.708332
0
LINE
8
Geometrie
62
5
6
CONTINUOUS
10
-11206.245117
20
-7952.291504
11
-10906.245117
21
-7652.291504
0
LINE
8
Geometrie
62
5
6
CONTINUOUS
10
-10433.958008
20
-7180.003906
11
-10333.958008
21
-7080.003906
0
LINE
8
Geometrie
62
5
6
CONTINUOUS
10
-8533.958008
20
-5280.003906
11
-8433.958008
21
-5180.003906
0
LINE
8
Geometrie
62
5
6
CONTINUOUS
10
-7906.245605
20
-4652.291504
11
-7806.245605
21
-4552.291504
0
LINE
8
Geometrie
62
5
6
CONTINUOUS
10
-6606.245605
20
-3352.291748
11
-6506.245605
21
-3252.291748
0
LINE
8
Geometrie
62
5
6
CONTINUOUS
10
-4433.958496
20
-1180.004517
11
-4333.958496
21
-1080.004517
0
LINE
8
Geometrie
62
5
6
CONTINUOUS
10
-3506.245605
20
-252.291672
11
-3206.245605
21
47.708332
0
LINE
8
Geometrie
62
5
6
CONTINUOUS
10
-11276.956055
20
-7952.291504
11
-10976.956055
21
-7652.291504
0
LINE
8
Geometrie
62
5
6
CONTINUOUS
10
-10433.958008
20
-7109.293457
11
-10333.958008
21
-7009.293457
0
LINE
8
Geometrie
62
5
6
CONTINUOUS
10
-8533.958008
20
-5209.293457
11
-8433.958008
21
-5109.293457
0
LINE
8
Geometrie
62
5
6
CONTINUOUS
10
-7976.956055
20
-4652.291504
11
-7876.956055
21
-4552.291504
0
LINE
8
Geometrie
62
5
6
CONTINUOUS
10
-6676.956543
20
-3352.291748
11
-6576.956543
21
-3252.291748
0
LINE
8
Geometrie
62
5
6
CONTINUOUS
10
-4433.958496
20
-1109.293823
11
-4333.958496
21
-1009.293823
0
LINE
8
Geometrie
62
5
6
CONTINUOUS
10
-3576.956299
20
-252.291672
11
-3276.956299
21
47.708332
0
LINE
8
Geometrie
62
5
6
CONTINUOUS
10
-11347.666992
20
-7952.291504
11
-11047.666992
21
-7652.291504
0
LINE
8
Geometrie
62
5
6
CONTINUOUS
10
-10433.958008
20
-7038.582520
11
-10333.958008
21
-6938.582520
0
LINE
8
Geometrie
62
5
6
CONTINUOUS
10
-8533.958008
20
-5138.582520
11
-8433.958008
21
-5038.582520
0
LINE
8
Geometrie
62
5
6
CONTINUOUS
10
-8047.666992
20
-4652.291504
11
-7947.666992
21
-4552.291504
0
LINE
8
Geometrie
62
5
6
CONTINUOUS
10
-6747.666992
20
-3352.291748
11
-6647.666992
21
-3252.291748
0
LINE
8
Geometrie
62
5
6
CONTINUOUS
10
-4433.958496
20
-1038.583130
11
-4333.958496
21
-938.583191
0
LINE
8
Geometrie
62
5
6
CONTINUOUS
10
-3647.666992
20
-252.291672
11
-3347.666992
21
47.708332
0
LINE
8
Geometrie
62
5
6
CONTINUOUS
10
-11418.377930
20
-7952.291504
11
-11118.377930
21
-7652.291504
0
LINE
8
Geometrie
62
5
6
CONTINUOUS
10
-10433.958008
20
-6967.872070
11
-10333.958008
21
-6867.872070
0
LINE
8
Geometrie
62
5
6
CONTINUOUS
10
-8533.958008
20
-5067.872070
11
-8433.958008
21
-4967.872070
0
LINE
8
Geometrie
62
5
6
CONTINUOUS
10
-8118.377441
20
-4652.291504
11
-8018.377441
21
-4552.291504
0
LINE
8
Geometrie
62
5
6
CONTINUOUS
10
-6818.377930
20
-3352.291748
11
-6718.377930
21
-3252.291748
0
LINE
8
Geometrie
62
5
6
CONTINUOUS
10
-4433.958496
20
-967.872498
11
-4333.958496
21
-867.872498
0
LINE
8
Geometrie
62
5
6
CONTINUOUS
10
-3718.377686
20
-252.291672
11
-3418.377686
21
47.708332
0
LINE
8
Geometrie
62
5
6
CONTINUOUS
10
-11489.087891
20
-7952.291504
11
-11189.087891
21
-7652.291504
0
LINE
8
Geometrie
62
5
6
CONTINUOUS
10
-10433.958008
20
-6897.161133
11
-10333.958008
21
-6797.161133
0
LINE
8
Geometrie
62
5
6
CONTINUOUS
10
-8533.958008
20
-4997.161133
11
-8433.958008
21
-4897.161133
0
LINE
8
Geometrie
62
5
6
CONTINUOUS
10
-8189.088379
20
-4652.291504
11
-8089.088379
21
-4552.291504
0
LINE
8
Geometrie
62
5
6
CONTINUOUS
10
-6889.088379
20
-3352.291748
11
-6789.088379
21
-3252.291748
0
LINE
8
Geometrie
62
5
6
CONTINUOUS
10
-4433.958496
20
-897.161804
11
-4333.958496
21
-797.161804
0
LINE
8
Geometrie
62
5
6
CONTINUOUS
10
-3789.088379
20
-252.291672
11
-3489.088379
21
47.708332
0
LINE
8
Geometrie
62
5
6
CONTINUOUS
10
-11559.798828
20
-7952.291504
11
-11259.798828
21
-7652.291504
0
LINE
8
Geometrie
62
5
6
CONTINUOUS
10
-10433.958008
20
-6826.450684
11
-10333.958008
21
-6726.450684
0
LINE
8
Geometrie
62
5
6
CONTINUOUS
10
-8533.958008
20
-4926.450684
11
-8433.958008
21
-4826.450684
0
LINE
8
Geometrie
62
5
6
CONTINUOUS
10
-8259.798828
20
-4652.291504
11
-8159.798828
21
-4552.291504
0
LINE
8
Geometrie
62
5
6
CONTINUOUS
10
-6959.799316
20
-3352.291748
11
-6833.958496
21
-3226.451172
0
LINE
8
Geometrie
62
5
6
CONTINUOUS
10
-4433.958496
20
-826.451111
11
-4333.958496
21
-726.451111
0
LINE
8
Geometrie
62
5
6
CONTINUOUS
10
-3859.799072
20
-252.291672
11
-3559.799072
21
47.708332
0
LINE
8
Geometrie
62
5
6
CONTINUOUS
10
-11630.509766
20
-7952.291504
11
-11330.509766
21
-7652.291504
0
LINE
8
Geometrie
62
5
6
CONTINUOUS
10
-10433.958008
20
-6755.739746
11
-10333.958008
21
-6655.739746
0
LINE
8
Geometrie
62
5
6
CONTINUOUS
10
-8533.958008
20
-4855.739746
11
-8433.958008
21
-4755.739746
0
LINE
8
Geometrie
62
5
6
CONTINUOUS
10
-8330.509766
20
-4652.291504
11
-8230.509766
21
-4552.291504
0
LINE
8
Geometrie
62
5
6
CONTINUOUS
10
-7030.509766
20
-3352.291748
11
-6833.958496
21
-3155.740479
0
LINE
8
Geometrie
62
5
6
CONTINUOUS
10
-4433.958496
20
-755.740479
11
-4333.958496
21
-655.740479
0
LINE
8
Geometrie
62
5
6
CONTINUOUS
10
-3930.509766
20
-252.291672
11
-3630.509766
21
47.708332
0
LINE
8
Geometrie
62
5
6
CONTINUOUS
10
-11701.220703
20
-7952.291504
11
-11401.220703
21
-7652.291504
0
LINE
8
Geometrie
62
5
6
CONTINUOUS
10
-10433.958008
20
-6685.029297
11
-10333.958008
21
-6585.029297
0
LINE
8
Geometrie
62
5
6
CONTINUOUS
10
-8533.958008
20
-4785.029297
11
-8433.958008
21
-4685.029297
0
LINE
8
Geometrie
62
5
6
CONTINUOUS
10
-8401.220703
20
-4652.291504
11
-8301.220703
21
-4552.291504
0
LINE
8
Geometrie
62
5
6
CONTINUOUS
10
-7101.220703
20
-3352.291748
11
-7001.220703
21
-3252.291748
0
LINE
8
Geometrie
62
5
6
CONTINUOUS
10
-6933.958496
20
-3185.029785
11
-6833.958496
21
-3085.029785
0
LINE
8
Geometrie
62
5
6
CONTINUOUS
10
-4433.958496
20
-685.029785
11
-4333.958496
21
-585.029785
0
LINE
8
Geometrie
62
5
6
CONTINUOUS
10
-4001.220459
20
-252.291672
11
-3701.220459
21
47.708332
0
LINE
8
Geometrie
62
5
6
CONTINUOUS
10
-11771.930664
20
-7952.291504
11
-11433.958008
21
-7614.318848
0
LINE
8
Geometrie
62
5
6
CONTINUOUS
10
-10433.958008
20
-6614.318848
11
-10333.958008
21
-6514.318848
0
LINE
8
Geometrie
62
5
6
CONTINUOUS
10
-8533.958008
20
-4714.318848
11
-8371.930664
21
-4552.291504
0
LINE
8
Geometrie
62
5
6
CONTINUOUS
10
-7171.931152
20
-3352.291748
11
-7071.931152
21
-3252.291748
0
LINE
8
Geometrie
62
5
6
CONTINUOUS
10
-6933.958496
20
-3114.319092
11
-6833.958496
21
-3014.319092
0
LINE
8
Geometrie
62
5
6
CONTINUOUS
10
-4433.958496
20
-614.319092
11
-4333.958496
21
-514.319092
0
LINE
8
Geometrie
62
5
6
CONTINUOUS
10
-4071.931152
20
-252.291672
11
-3771.931152
21
47.708332
0
LINE
8
Geometrie
62
5
6
CONTINUOUS
10
-11842.641602
20
-7952.291504
11
-11542.641602
21
-7652.291504
0
LINE
8
Geometrie
62
5
6
CONTINUOUS
10
-11533.958008
20
-7643.607910
11
-11433.958008
21
-7543.607910
0
LINE
8
Geometrie
62
5
6
CONTINUOUS
10
-10433.958008
20
-6543.607910
11
-10333.958008
21
-6443.607910
0
LINE
8
Geometrie
62
5
6
CONTINUOUS
10
-8542.641602
20
-4652.291504
11
-8442.641602
21
-4552.291504
0
LINE
8
Geometrie
62
5
6
CONTINUOUS
10
-7242.641602
20
-3352.291748
11
-7142.641602
21
-3252.291748
0
LINE
8
Geometrie
62
5
6
CONTINUOUS
10
-6933.958496
20
-3043.608398
11
-6833.958496
21
-2943.608398
0
LINE
8
Geometrie
62
5
6
CONTINUOUS
10
-4433.958496
20
-543.608398
11
-4333.958496
21
-443.608429
0
LINE
8
Geometrie
62
5
6
CONTINUOUS
10
-4142.641602
20
-252.291672
11
-3842.641846
21
47.708332
0
LINE
8
Geometrie
62
5
6
CONTINUOUS
10
-11913.352539
20
-7952.291504
11
-11613.352539
21
-7652.291504
0
LINE
8
Geometrie
62
5
6
CONTINUOUS
10
-11533.958008
20
-7572.897461
11
-11433.958008
21
-7472.897461
0
LINE
8
Geometrie
62
5
6
CONTINUOUS
10
-10433.958008
20
-6472.897461
11
-10333.958008
21
-6372.897461
0
LINE
8
Geometrie
62
5
6
CONTINUOUS
10
-8613.352539
20
-4652.291504
11
-8513.352539
21
-4552.291504
0
LINE
8
Geometrie
62
5
6
CONTINUOUS
10
-7313.352539
20
-3352.291748
11
-7213.352539
21
-3252.291748
0
LINE
8
Geometrie
62
5
6
CONTINUOUS
10
-6933.958496
20
-2972.897705
11
-6833.958496
21
-2872.897705
0
LINE
8
Geometrie
62
5
6
CONTINUOUS
10
-4433.958496
20
-472.897736
11
-4333.958496
21
-372.897736
0
LINE
8
Geometrie
62
5
6
CONTINUOUS
10
-4213.352539
20
-252.291672
11
-3913.352539
21
47.708332
0
LINE
8
Geometrie
62
5
6
CONTINUOUS
10
-11984.062500
20
-7952.291504
11
-11684.062500
21
-7652.291504
0
LINE
8
Geometrie
62
5
6
CONTINUOUS
10
-11533.958008
20
-7502.186523
11
-11433.958008
21
-7402.186523
0
LINE
8
Geometrie
62
5
6
CONTINUOUS
10
-10433.958008
20
-6402.186523
11
-10333.958008
21
-6302.186523
0
LINE
8
Geometrie
62
5
6
CONTINUOUS
10
-8684.062500
20
-4652.291504
11
-8584.062500
21
-4552.291504
0
LINE
8
Geometrie
62
5
6
CONTINUOUS
10
-7384.062988
20
-3352.291748
11
-7284.062988
21
-3252.291748
0
LINE
8
Geometrie
62
5
6
CONTINUOUS
10
-6933.958496
20
-2902.187012
11
-6833.958496
21
-2802.187012
0
LINE
8
Geometrie
62
5
6
CONTINUOUS
10
-4433.958496
20
-402.187073
11
-4333.958496
21
-302.187073
0
LINE
8
Geometrie
62
5
6
CONTINUOUS
10
-4284.062988
20
-252.291672
11
-3984.062988
21
47.708332
0
LINE
8
Geometrie
62
5
6
CONTINUOUS
10
-12054.773438
20
-7952.291504
11
-11754.773438
21
-7652.291504
0
LINE
8
Geometrie
62
5
6
CONTINUOUS
10
-11533.958008
20
-7431.476074
11
-11433.958008
21
-7331.476074
0
LINE
8
Geometrie
62
5
6
CONTINUOUS
10
-10433.958008
20
-6331.476074
11
-10333.958008
21
-6231.476074
0
LINE
8
Geometrie
62
5
6
CONTINUOUS
10
-8754.773438
20
-4652.291504
11
-8654.773438
21
-4552.291504
0
LINE
8
Geometrie
62
5
6
CONTINUOUS
10
-7454.773926
20
-3352.291748
11
-7354.773926
21
-3252.291748
0
LINE
8
Geometrie
62
5
6
CONTINUOUS
10
-6933.958496
20
-2831.476318
11
-6833.958496
21
-2731.476318
0
LINE
8
Geometrie
62
5
6
CONTINUOUS
10
-4433.958496
20
-331.476379
11
-4054.773682
21
47.708332
0
LINE
8
Geometrie
62
5
6
CONTINUOUS
10
-12125.484375
20
-7952.291504
11
-11825.484375
21
-7652.291504
0
LINE
8
Geometrie
62
5
6
CONTINUOUS
10
-11533.958008
20
-7360.765137
11
-11433.958008
21
-7260.765137
0
LINE
8
Geometrie
62
5
6
CONTINUOUS
10
-10433.958008
20
-6260.765137
11
-10333.958008
21
-6160.765137
0
LINE
8
Geometrie
62
5
6
CONTINUOUS
10
-8825.484375
20
-4652.291504
11
-8725.484375
21
-4552.291504
0
LINE
8
Geometrie
62
5
6
CONTINUOUS
10
-7525.484375
20
-3352.291748
11
-7425.484375
21
-3252.291748
0
LINE
8
Geometrie
62
5
6
CONTINUOUS
10
-6933.958496
20
-2760.765625
11
-6833.958496
21
-2660.765625
0
LINE
8
Geometrie
62
5
6
CONTINUOUS
10
-4433.958496
20
-260.765717
11
-4125.484375
21
47.708332
0
LINE
8
Geometrie
62
5
6
CONTINUOUS
10
-12196.195313
20
-7952.291504
11
-11896.195313
21
-7652.291504
0
LINE
8
Geometrie
62
5
6
CONTINUOUS
10
-11533.958008
20
-7290.054688
11
-11433.958008
21
-7190.054688
0
LINE
8
Geometrie
62
5
6
CONTINUOUS
10
-10433.958008
20
-6190.054688
11
-10333.958008
21
-6090.054688
0
LINE
8
Geometrie
62
5
6
CONTINUOUS
10
-8896.195313
20
-4652.291504
11
-8796.195313
21
-4552.291504
0
LINE
8
Geometrie
62
5
6
CONTINUOUS
10
-7596.195313
20
-3352.291748
11
-7496.195313
21
-3252.291748
0
LINE
8
Geometrie
62
5
6
CONTINUOUS
10
-6933.958496
20
-2690.054932
11
-6833.958496
21
-2590.054932
0
LINE
8
Geometrie
62
5
6
CONTINUOUS
10
-4496.195313
20
-252.291672
11
-4196.195313
21
47.708332
0
LINE
8
Geometrie
62
5
6
CONTINUOUS
10
-12266.905273
20
-7952.291504
11
-11966.905273
21
-7652.291504
0
LINE
8
Geometrie
62
5
6
CONTINUOUS
10
-11533.958008
20
-7219.343750
11
-11433.958008
21
-7119.343750
0
LINE
8
Geometrie
62
5
6
CONTINUOUS
10
-10466.905273
20
-6152.291504
11
-10333.958008
21
-6019.343750
0
LINE
8
Geometrie
62
5
6
CONTINUOUS
10
-8966.905273
20
-4652.291504
11
-8866.905273
21
-4552.291504
0
LINE
8
Geometrie
62
5
6
CONTINUOUS
10
-7666.905762
20
-3352.291748
11
-7566.905762
21
-3252.291748
0
LINE
8
Geometrie
62
5
6
CONTINUOUS
10
-6933.958496
20
-2619.344238
11
-6833.958496
21
-2519.344238
0
LINE
8
Geometrie
62
5
6
CONTINUOUS
10
-4566.905762
20
-252.291672
11
-4266.905762
21
47.708332
0
LINE
8
Geometrie
62
5
6
CONTINUOUS
10
-12337.616211
20
-7952.291504
11
-12037.616211
21
-7652.291504
0
LINE
8
Geometrie
62
5
6
CONTINUOUS
10
-11533.958008
20
-7148.633301
11
-11433.958008
21
-7048.633301
0
LINE
8
Geometrie
62
5
6
CONTINUOUS
10
-10537.616211
20
-6152.291504
11
-10437.616211
21
-6052.291504
0
LINE
8
Geometrie
62
5
6
CONTINUOUS
10
-10433.958008
20
-6048.633301
11
-10333.958008
21
-5948.633301
0
LINE
8
Geometrie
62
5
6
CONTINUOUS
10
-9037.616211
20
-4652.291504
11
-8937.616211
21
-4552.291504
0
LINE
8
Geometrie
62
5
6
CONTINUOUS
10
-7737.616699
20
-3352.291748
11
-7637.616699
21
-3252.291748
0
LINE
8
Geometrie
62
5
6
CONTINUOUS
10
-6933.958496
20
-2548.633789
11
-6833.958496
21
-2448.633789
0
LINE
8
Geometrie
62
5
6
CONTINUOUS
10
-4637.616699
20
-252.291672
11
-4337.616699
21
47.708332
0
LINE
8
Geometrie
62
5
6
CONTINUOUS
10
-12408.327148
20
-7952.291504
11
-12108.327148
21
-7652.291504
0
LINE
8
Geometrie
62
5
6
CONTINUOUS
10
-11533.958008
20
-7077.922363
11
-11433.958008
21
-6977.922363
0
LINE
8
Geometrie
62
5
6
CONTINUOUS
10
-10608.327148
20
-6152.291504
11
-10508.327148
21
-6052.291504
0
LINE
8
Geometrie
62
5
6
CONTINUOUS
10
-10433.958008
20
-5977.922363
11
-10333.958008
21
-5877.922363
0
LINE
8
Geometrie
62
5
6
CONTINUOUS
10
-9108.327148
20
-4652.291504
11
-9008.327148
21
-4552.291504
0
LINE
8
Geometrie
62
5
6
CONTINUOUS
10
-7808.327148
20
-3352.291748
11
-7708.327148
21
-3252.291748
0
LINE
8
Geometrie
62
5
6
CONTINUOUS
10
-6933.958496
20
-2477.923096
11
-6833.958496
21
-2377.923096
0
LINE
8
Geometrie
62
5
6
CONTINUOUS
10
-4708.327148
20
-252.291672
11
-4408.327148
21
47.708332
0
LINE
8
Geometrie
62
5
6
CONTINUOUS
10
-12479.038086
20
-7952.291504
11
-12179.038086
21
-7652.291504
0
LINE
8
Geometrie
62
5
6
CONTINUOUS
10
-11533.958008
20
-7007.211914
11
-11433.958008
21
-6907.211914
0
LINE
8
Geometrie
62
5
6
CONTINUOUS
10
-10679.038086
20
-6152.291504
11
-10579.038086
21
-6052.291504
0
LINE
8
Geometrie
62
5
6
CONTINUOUS
10
-10433.958008
20
-5907.211914
11
-10333.958008
21
-5807.211914
0
LINE
8
Geometrie
62
5
6
CONTINUOUS
10
-9179.038086
20
-4652.291504
11
-9079.038086
21
-4552.291504
0
LINE
8
Geometrie
62
5
6
CONTINUOUS
10
-7879.038086
20
-3352.291748
11
-7779.038086
21
-3252.291748
0
LINE
8
Geometrie
62
5
6
CONTINUOUS
10
-6933.958496
20
-2407.212402
11
-6833.958496
21
-2307.212402
0
LINE
8
Geometrie
62
5
6
CONTINUOUS
10
-4779.038086
20
-252.291672
11
-4479.038086
21
47.708332
0
LINE
8
Geometrie
62
5
6
CONTINUOUS
10
-12549.748047
20
-7952.291504
11
-12249.748047
21
-7652.291504
0
LINE
8
Geometrie
62
5
6
CONTINUOUS
10
-11533.958008
20
-6936.500977
11
-11433.958008
21
-6836.500977
0
LINE
8
Geometrie
62
5
6
CONTINUOUS
10
-10749.748047
20
-6152.291504
11
-10649.748047
21
-6052.291504
0
LINE
8
Geometrie
62
5
6
CONTINUOUS
10
-10433.958008
20
-5836.500977
11
-10333.958008
21
-5736.500977
0
LINE
8
Geometrie
62
5
6
CONTINUOUS
10
-9249.748047
20
-4652.291504
11
-9149.748047
21
-4552.291504
0
LINE
8
Geometrie
62
5
6
CONTINUOUS
10
-7949.748535
20
-3352.291748
11
-7849.748535
21
-3252.291748
0
LINE
8
Geometrie
62
5
6
CONTINUOUS
10
-6933.958496
20
-2336.501709
11
-6833.958496
21
-2236.501709
0
LINE
8
Geometrie
62
5
6
CONTINUOUS
10
-4849.748535
20
-252.291672
11
-4549.748535
21
47.708332
0
LINE
8
Geometrie
62
5
6
CONTINUOUS
10
-12620.458984
20
-7952.291504
11
-12320.458984
21
-7652.291504
0
LINE
8
Geometrie
62
5
6
CONTINUOUS
10
-11533.958008
20
-6865.790527
11
-11433.958008
21
-6765.790527
0
LINE
8
Geometrie
62
5
6
CONTINUOUS
10
-10820.458984
20
-6152.291504
11
-10720.458984
21
-6052.291504
0
LINE
8
Geometrie
62
5
6
CONTINUOUS
10
-10433.958008
20
-5765.790527
11
-10333.958008
21
-5665.790527
0
LINE
8
Geometrie
62
5
6
CONTINUOUS
10
-9320.458984
20
-4652.291504
11
-9220.458984
21
-4552.291504
0
LINE
8
Geometrie
62
5
6
CONTINUOUS
10
-8020.459473
20
-3352.291748
11
-7920.459473
21
-3252.291748
0
LINE
8
Geometrie
62
5
6
CONTINUOUS
10
-6933.958496
20
-2265.791016
11
-6833.958496
21
-2165.791016
0
LINE
8
Geometrie
62
5
6
CONTINUOUS
10
-4920.458984
20
-252.291672
11
-4620.458984
21
47.708332
0
LINE
8
Geometrie
62
5
6
CONTINUOUS
10
-12691.169922
20
-7952.291504
11
-12391.169922
21
-7652.291504
0
LINE
8
Geometrie
62
5
6
CONTINUOUS
10
-11533.958008
20
-6795.079590
11
-11433.958008
21
-6695.079590
0
LINE
8
Geometrie
62
5
6
CONTINUOUS
10
-10891.169922
20
-6152.291504
11
-10791.169922
21
-6052.291504
0
LINE
8
Geometrie
62
5
6
CONTINUOUS
10
-10433.958008
20
-5695.079590
11
-10333.958008
21
-5595.079590
0
LINE
8
Geometrie
62
5
6
CONTINUOUS
10
-9391.169922
20
-4652.291504
11
-9291.169922
21
-4552.291504
0
LINE
8
Geometrie
62
5
6
CONTINUOUS
10
-8091.169922
20
-3352.291748
11
-7933.958496
21
-3195.080322
0
LINE
8
Geometrie
62
5
6
CONTINUOUS
10
-6933.958496
20
-2195.080322
11
-6833.958496
21
-2095.080322
0
LINE
8
Geometrie
62
5
6
CONTINUOUS
10
-4991.169922
20
-252.291672
11
-4691.169922
21
47.708332
0
LINE
8
Geometrie
62
5
6
CONTINUOUS
10
-12761.880859
20
-7952.291504
11
-12461.880859
21
-7652.291504
0
LINE
8
Geometrie
62
5
6
CONTINUOUS
10
-11533.958008
20
-6724.369141
11
-11433.958008
21
-6624.369141
0
LINE
8
Geometrie
62
5
6
CONTINUOUS
10
-10961.880859
20
-6152.291504
11
-10861.880859
21
-6052.291504
0
LINE
8
Geometrie
62
5
6
CONTINUOUS
10
-10433.958008
20
-5624.369141
11
-10333.958008
21
-5524.369141
0
LINE
8
Geometrie
62
5
6
CONTINUOUS
10
-9461.880859
20
-4652.291504
11
-9361.880859
21
-4552.291504
0
LINE
8
Geometrie
62
5
6
CONTINUOUS
10
-8161.880859
20
-3352.291748
11
-8061.880859
21
-3252.291748
0
LINE
8
Geometrie
62
5
6
CONTINUOUS
10
-8033.958496
20
-3224.369629
11
-7933.958496
21
-3124.369629
0
LINE
8
Geometrie
62
5
6
CONTINUOUS
10
-6933.958496
20
-2124.369629
11
-6833.958496
21
-2024.369629
0
LINE
8
Geometrie
62
5
6
CONTINUOUS
10
-5061.880371
20
-252.291672
11
-4761.880371
21
47.708332
0
LINE
8
Geometrie
62
5
6
CONTINUOUS
10
-12832.590820
20
-7952.291504
11
-12532.590820
21
-7652.291504
0
LINE
8
Geometrie
62
5
6
CONTINUOUS
10
-11533.958008
20
-6653.658203
11
-11433.958008
21
-6553.658203
0
LINE
8
Geometrie
62
5
6
CONTINUOUS
10
-11032.590820
20
-6152.291504
11
-10932.590820
21
-6052.291504
0
LINE
8
Geometrie
62
5
6
CONTINUOUS
10
-10433.958008
20
-5553.658203
11
-10333.958008
21
-5453.658203
0
LINE
8
Geometrie
62
5
6
CONTINUOUS
10
-9532.590820
20
-4652.291504
11
-9432.590820
21
-4552.291504
0
LINE
8
Geometrie
62
5
6
CONTINUOUS
10
-8232.591797
20
-3352.291748
11
-8132.591309
21
-3252.291748
0
LINE
8
Geometrie
62
5
6
CONTINUOUS
10
-8033.958496
20
-3153.658936
11
-7933.958496
21
-3053.658936
0
LINE
8
Geometrie
62
5
6
CONTINUOUS
10
-6933.958496
20
-2053.658936
11
-6833.958496
21
-1953.658936
0
LINE
8
Geometrie
62
5
6
CONTINUOUS
10
-5132.591309
20
-252.291672
11
-4832.591309
21
47.708332
0
LINE
8
Geometrie
62
5
6
CONTINUOUS
10
-12903.301758
20
-7952.291504
11
-12603.301758
21
-7652.291504
0
LINE
8
Geometrie
62
5
6
CONTINUOUS
10
-11533.958008
20
-6582.947754
11
-11433.958008
21
-6482.947754
0
LINE
8
Geometrie
62
5
6
CONTINUOUS
10
-11103.301758
20
-6152.291504
11
-11003.301758
21
-6052.291504
0
LINE
8
Geometrie
62
5
6
CONTINUOUS
10
-10433.958008
20
-5482.947754
11
-10333.958008
21
-5382.947754
0
LINE
8
Geometrie
62
5
6
CONTINUOUS
10
-9603.301758
20
-4652.291504
11
-9503.301758
21
-4552.291504
0
LINE
8
Geometrie
62
5
6
CONTINUOUS
10
-8303.301758
20
-3352.291748
11
-8203.301758
21
-3252.291748
0
LINE
8
Geometrie
62
5
6
CONTINUOUS
10
-8033.958496
20
-3082.948242
11
-7933.958496
21
-2982.948242
0
LINE
8
Geometrie
62
5
6
CONTINUOUS
10
-6933.958496
20
-1982.948242
11
-6833.958496
21
-1882.948242
0
LINE
8
Geometrie
62
5
6
CONTINUOUS
10
-5203.301758
20
-252.291672
11
-4903.301758
21
47.708332
0
LINE
8
Geometrie
62
5
6
CONTINUOUS
10
-12974.012695
20
-7952.291504
11
-12674.012695
21
-7652.291504
0
LINE
8
Geometrie
62
5
6
CONTINUOUS
10
-11533.958008
20
-6512.237305
11
-11433.958008
21
-6412.237305
0
LINE
8
Geometrie
62
5
6
CONTINUOUS
10
-11174.012695
20
-6152.291504
11
-11074.012695
21
-6052.291504
0
LINE
8
Geometrie
62
5
6
CONTINUOUS
10
-10433.958008
20
-5412.237305
11
-10333.958008
21
-5312.237305
0
LINE
8
Geometrie
62
5
6
CONTINUOUS
10
-9674.012695
20
-4652.291504
11
-9574.012695
21
-4552.291504
0
LINE
8
Geometrie
62
5
6
CONTINUOUS
10
-8374.012695
20
-3352.291748
11
-8274.012695
21
-3252.291748
0
LINE
8
Geometrie
62
5
6
CONTINUOUS
10
-8033.958496
20
-3012.237549
11
-7933.958496
21
-2912.237549
0
LINE
8
Geometrie
62
5
6
CONTINUOUS
10
-6933.958496
20
-1912.237549
11
-6833.958496
21
-1812.237549
0
LINE
8
Geometrie
62
5
6
CONTINUOUS
10
-5274.012695
20
-252.291672
11
-4974.012695
21
47.708332
0
LINE
8
Geometrie
62
5
6
CONTINUOUS
10
-13044.722656
20
-7952.291504
11
-12744.722656
21
-7652.291504
0
LINE
8
Geometrie
62
5
6
CONTINUOUS
10
-11533.958008
20
-6441.526367
11
-11433.958008
21
-6341.526367
0
LINE
8
Geometrie
62
5
6
CONTINUOUS
10
-11244.722656
20
-6152.291504
11
-11144.722656
21
-6052.291504
0
LINE
8
Geometrie
62
5
6
CONTINUOUS
10
-10433.958008
20
-5341.526367
11
-10333.958008
21
-5241.526367
0
LINE
8
Geometrie
62
5
6
CONTINUOUS
10
-9744.722656
20
-4652.291504
11
-9644.722656
21
-4552.291504
0
LINE
8
Geometrie
62
5
6
CONTINUOUS
10
-8444.723633
20
-3352.291748
11
-8344.723633
21
-3252.291748
0
LINE
8
Geometrie
62
5
6
CONTINUOUS
10
-8033.958496
20
-2941.526855
11
-7933.958496
21
-2841.526855
0
LINE
8
Geometrie
62
5
6
CONTINUOUS
10
-6933.958496
20
-1841.526855
11
-6833.958496
21
-1741.526855
0
LINE
8
Geometrie
62
5
6
CONTINUOUS
10
-5344.723145
20
-252.291672
11
-5044.723145
21
47.708332
0
LINE
8
Geometrie
62
5
6
CONTINUOUS
10
-13115.433594
20
-7952.291504
11
-12815.433594
21
-7652.291504
0
LINE
8
Geometrie
62
5
6
CONTINUOUS
10
-11533.958008
20
-6370.815918
11
-11433.958008
21
-6270.815918
0
LINE
8
Geometrie
62
5
6
CONTINUOUS
10
-11315.433594
20
-6152.291504
11
-11215.433594
21
-6052.291504
0
LINE
8
Geometrie
62
5
6
CONTINUOUS
10
-10433.958008
20
-5270.815918
11
-10333.958008
21
-5170.815918
0
LINE
8
Geometrie
62
5
6
CONTINUOUS
10
-9815.433594
20
-4652.291504
11
-9715.433594
21
-4552.291504
0
LINE
8
Geometrie
62
5
6
CONTINUOUS
10
-8515.433594
20
-3352.291748
11
-8415.433594
21
-3252.291748
0
LINE
8
Geometrie
62
5
6
CONTINUOUS
10
-8033.958496
20
-2870.816162
11
-7933.958496
21
-2770.816162
0
LINE
8
Geometrie
62
5
6
CONTINUOUS
10
-6965.434082
20
-1802.291626
11
-6865.434082
21
-1702.291626
0
LINE
8
Geometrie
62
5
6
CONTINUOUS
10
-5415.434082
20
-252.291672
11
-5115.434082
21
47.708332
0
LINE
8
Geometrie
62
5
6
CONTINUOUS
10
-13186.144531
20
-7952.291504
11
-12886.144531
21
-7652.291504
0
LINE
8
Geometrie
62
5
6
CONTINUOUS
10
-11533.958008
20
-6300.104980
11
-11433.958008
21
-6200.104980
0
LINE
8
Geometrie
62
5
6
CONTINUOUS
10
-11386.144531
20
-6152.291504
11
-11286.144531
21
-6052.291504
0
LINE
8
Geometrie
62
5
6
CONTINUOUS
10
-10433.958008
20
-5200.104980
11
-10333.958008
21
-5100.104980
0
LINE
8
Geometrie
62
5
6
CONTINUOUS
10
-9886.144531
20
-4652.291504
11
-9786.144531
21
-4552.291504
0
LINE
8
Geometrie
62
5
6
CONTINUOUS
10
-8586.144531
20
-3352.291748
11
-8486.144531
21
-3252.291748
0
LINE
8
Geometrie
62
5
6
CONTINUOUS
10
-8033.958496
20
-2800.105469
11
-7933.958496
21
-2700.105469
0
LINE
8
Geometrie
62
5
6
CONTINUOUS
10
-7036.144531
20
-1802.291626
11
-6936.144531
21
-1702.291626
0
LINE
8
Geometrie
62
5
6
CONTINUOUS
10
-5486.144531
20
-252.291672
11
-5186.144531
21
47.708332
0
LINE
8
Geometrie
62
5
6
CONTINUOUS
10
-13256.855469
20
-7952.291504
11
-12956.855469
21
-7652.291504
0
LINE
8
Geometrie
62
5
6
CONTINUOUS
10
-11533.958008
20
-6229.394531
11
-11356.855469
21
-6052.291504
0
LINE
8
Geometrie
62
5
6
CONTINUOUS
10
-10433.958008
20
-5129.394531
11
-10333.958008
21
-5029.394531
0
LINE
8
Geometrie
62
5
6
CONTINUOUS
10
-9956.855469
20
-4652.291504
11
-9856.855469
21
-4552.291504
0
LINE
8
Geometrie
62
5
6
CONTINUOUS
10
-8656.855469
20
-3352.291748
11
-8556.855469
21
-3252.291748
0
LINE
8
Geometrie
62
5
6
CONTINUOUS
10
-8033.958496
20
-2729.394775
11
-7933.958496
21
-2629.394775
0
LINE
8
Geometrie
62
5
6
CONTINUOUS
10
-7106.855469
20
-1802.291626
11
-7006.855469
21
-1702.291626
0
LINE
8
Geometrie
62
5
6
CONTINUOUS
10
-5556.855469
20
-252.291672
11
-5256.855469
21
47.708332
0
LINE
8
Geometrie
62
5
6
CONTINUOUS
10
-13327.565430
20
-7952.291504
11
-13027.565430
21
-7652.291504
0
LINE
8
Geometrie
62
5
6
CONTINUOUS
10
-11533.958008
20
-6158.683594
11
-11427.565430
21
-6052.291504
0
LINE
8
Geometrie
62
5
6
CONTINUOUS
10
-10433.958008
20
-5058.683594
11
-10333.958008
21
-4958.683594
0
LINE
8
Geometrie
62
5
6
CONTINUOUS
10
-10027.565430
20
-4652.291504
11
-9927.565430
21
-4552.291504
0
LINE
8
Geometrie
62
5
6
CONTINUOUS
10
-8727.566406
20
-3352.291748
11
-8627.566406
21
-3252.291748
0
LINE
8
Geometrie
62
5
6
CONTINUOUS
10
-8033.958496
20
-2658.684082
11
-7933.958496
21
-2558.684082
0
LINE
8
Geometrie
62
5
6
CONTINUOUS
10
-7177.565918
20
-1802.291626
11
-7077.565918
21
-1702.291626
0
LINE
8
Geometrie
62
5
6
CONTINUOUS
10
-5627.565918
20
-252.291672
11
-5327.565918
21
47.708332
0
LINE
8
Geometrie
62
5
6
CONTINUOUS
10
-13398.276367
20
-7952.291504
11
-13098.276367
21
-7652.291504
0
LINE
8
Geometrie
62
5
6
CONTINUOUS
10
-11533.958008
20
-6087.973145
11
-11498.276367
21
-6052.291504
0
LINE
8
Geometrie
62
5
6
CONTINUOUS
10
-10433.958008
20
-4987.973145
11
-10333.958008
21
-4887.973145
0
LINE
8
Geometrie
62
5
6
CONTINUOUS
10
-10098.276367
20
-4652.291504
11
-9998.276367
21
-4552.291504
0
LINE
8
Geometrie
62
5
6
CONTINUOUS
10
-8798.276367
20
-3352.291748
11
-8698.276367
21
-3252.291748
0
LINE
8
Geometrie
62
5
6
CONTINUOUS
10
-8033.958496
20
-2587.973389
11
-7933.958496
21
-2487.973389
0
LINE
8
Geometrie
62
5
6
CONTINUOUS
10
-7248.276855
20
-1802.291626
11
-7148.276855
21
-1702.291626
0
LINE
8
Geometrie
62
5
6
CONTINUOUS
10
-5698.276855
20
-252.291672
11
-5398.276855
21
47.708332
0
LINE
8
Geometrie
62
5
6
CONTINUOUS
10
-13468.987305
20
-7952.291504
11
-13168.987305
21
-7652.291504
0
LINE
8
Geometrie
62
5
6
CONTINUOUS
10
-10433.958008
20
-4917.262207
11
-10333.958008
21
-4817.262207
0
LINE
8
Geometrie
62
5
6
CONTINUOUS
10
-10168.987305
20
-4652.291504
11
-10068.987305
21
-4552.291504
0
LINE
8
Geometrie
62
5
6
CONTINUOUS
10
-8868.987305
20
-3352.291748
11
-8768.987305
21
-3252.291748
0
LINE
8
Geometrie
62
5
6
CONTINUOUS
10
-8033.958496
20
-2517.262939
11
-7933.958496
21
-2417.262939
0
LINE
8
Geometrie
62
5
6
CONTINUOUS
10
-7318.987305
20
-1802.291626
11
-7218.987305
21
-1702.291626
0
LINE
8
Geometrie
62
5
6
CONTINUOUS
10
-5768.987305
20
-252.291672
11
-5468.987305
21
47.708332
0
LINE
8
Geometrie
62
5
6
CONTINUOUS
10
-13539.698242
20
-7952.291504
11
-13239.698242
21
-7652.291504
0
LINE
8
Geometrie
62
5
6
CONTINUOUS
10
-10433.958008
20
-4846.551758
11
-10333.958008
21
-4746.551758
0
LINE
8
Geometrie
62
5
6
CONTINUOUS
10
-10239.698242
20
-4652.291504
11
-10139.698242
21
-4552.291504
0
LINE
8
Geometrie
62
5
6
CONTINUOUS
10
-8939.698242
20
-3352.291748
11
-8839.698242
21
-3252.291748
0
LINE
8
Geometrie
62
5
6
CONTINUOUS
10
-8033.958496
20
-2446.552246
11
-7933.958496
21
-2346.552246
0
LINE
8
Geometrie
62
5
6
CONTINUOUS
10
-7389.697754
20
-1802.291626
11
-7289.697754
21
-1702.291626
0
LINE
8
Geometrie
62
5
6
CONTINUOUS
10
-5839.698242
20
-252.291672
11
-5539.698242
21
47.708332
0
LINE
8
Geometrie
62
5
6
CONTINUOUS
10
-13610.408203
20
-7952.291504
11
-13310.408203
21
-7652.291504
0
LINE
8
Geometrie
62
5
6
CONTINUOUS
10
-10433.958008
20
-4775.840820
11
-10333.958008
21
-4675.840820
0
LINE
8
Geometrie
62
5
6
CONTINUOUS
10
-10310.408203
20
-4652.291504
11
-10210.408203
21
-4552.291504
0
LINE
8
Geometrie
62
5
6
CONTINUOUS
10
-9010.409180
20
-3352.291748
11
-8910.409180
21
-3252.291748
0
LINE
8
Geometrie
62
5
6
CONTINUOUS
10
-8033.958496
20
-2375.841553
11
-7933.958496
21
-2275.841553
0
LINE
8
Geometrie
62
5
6
CONTINUOUS
10
-7460.408691
20
-1802.291626
11
-7360.408691
21
-1702.291626
0
LINE
8
Geometrie
62
5
6
CONTINUOUS
10
-5910.408691
20
-252.291672
11
-5610.408691
21
47.708332
0
LINE
8
Geometrie
62
5
6
CONTINUOUS
10
-13681.119141
20
-7952.291504
11
-13381.119141
21
-7652.291504
0
LINE
8
Geometrie
62
5
6
CONTINUOUS
10
-10433.958008
20
-4705.130371
11
-10281.119141
21
-4552.291504
0
LINE
8
Geometrie
62
5
6
CONTINUOUS
10
-9081.119141
20
-3352.291748
11
-8981.119141
21
-3252.291748
0
LINE
8
Geometrie
62
5
6
CONTINUOUS
10
-8033.958496
20
-2305.130859
11
-7933.958496
21
-2205.130859
0
LINE
8
Geometrie
62
5
6
CONTINUOUS
10
-7531.119141
20
-1802.291626
11
-7431.119141
21
-1702.291626
0
LINE
8
Geometrie
62
5
6
CONTINUOUS
10
-5981.119141
20
-252.291672
11
-5681.119141
21
47.708332
0
LINE
8
Geometrie
62
5
6
CONTINUOUS
10
-13751.830078
20
-7952.291504
11
-13451.830078
21
-7652.291504
0
LINE
8
Geometrie
62
5
6
CONTINUOUS
10
-10433.958008
20
-4634.419434
11
-10351.830078
21
-4552.291504
0
LINE
8
Geometrie
62
5
6
CONTINUOUS
10
-9151.830078
20
-3352.291748
11
-9051.830078
21
-3252.291748
0
LINE
8
Geometrie
62
5
6
CONTINUOUS
10
-8033.958496
20
-2234.420166
11
-7933.958496
21
-2134.420166
0
LINE
8
Geometrie
62
5
6
CONTINUOUS
10
-7601.830078
20
-1802.291626
11
-7433.958496
21
-1634.420166
0
LINE
8
Geometrie
62
5
6
CONTINUOUS
10
-6051.830078
20
-252.291672
11
-5751.830078
21
47.708332
0
LINE
8
Geometrie
62
5
6
CONTINUOUS
10
-13822.541016
20
-7952.291504
11
-13522.541016
21
-7652.291504
0
LINE
8
Geometrie
62
5
6
CONTINUOUS
10
-10433.958008
20
-4563.708984
11
-10422.541016
21
-4552.291504
0
LINE
8
Geometrie
62
5
6
CONTINUOUS
10
-9222.541016
20
-3352.291748
11
-9122.541016
21
-3252.291748
0
LINE
8
Geometrie
62
5
6
CONTINUOUS
10
-8033.958496
20
-2163.709473
11
-7933.958496
21
-2063.709473
0
LINE
8
Geometrie
62
5
6
CONTINUOUS
10
-7672.540527
20
-1802.291626
11
-7572.540527
21
-1702.291626
0
LINE
8
Geometrie
62
5
6
CONTINUOUS
10
-7533.958496
20
-1663.709473
11
-7433.958496
21
-1563.709473
0
LINE
8
Geometrie
62
5
6
CONTINUOUS
10
-6122.540527
20
-252.291672
11
-5822.540527
21
47.708332
0
LINE
8
Geometrie
62
5
6
CONTINUOUS
10
-13893.250977
20
-7952.291504
11
-13593.250977
21
-7652.291504
0
LINE
8
Geometrie
62
5
6
CONTINUOUS
10
-9293.251953
20
-3352.291748
11
-9193.251953
21
-3252.291748
0
LINE
8
Geometrie
62
5
6
CONTINUOUS
10
-8033.958496
20
-2092.998779
11
-7933.958496
21
-1992.998779
0
LINE
8
Geometrie
62
5
6
CONTINUOUS
10
-7743.251465
20
-1802.291626
11
-7643.251465
21
-1702.291626
0
LINE
8
Geometrie
62
5
6
CONTINUOUS
10
-7533.958496
20
-1592.998779
11
-7433.958496
21
-1492.998779
0
LINE
8
Geometrie
62
5
6
CONTINUOUS
10
-6193.251465
20
-252.291672
11
-5893.251465
21
47.708332
0
LINE
8
Geometrie
62
5
6
CONTINUOUS
10
-13963.961914
20
-7952.291504
11
-13663.961914
21
-7652.291504
0
LINE
8
Geometrie
62
5
6
CONTINUOUS
10
-9363.961914
20
-3352.291748
11
-9263.961914
21
-3252.291748
0
LINE
8
Geometrie
62
5
6
CONTINUOUS
10
-8033.958496
20
-2022.288086
11
-7933.958496
21
-1922.288086
0
LINE
8
Geometrie
62
5
6
CONTINUOUS
10
-7813.961914
20
-1802.291626
11
-7713.961914
21
-1702.291626
0
LINE
8
Geometrie
62
5
6
CONTINUOUS
10
-7533.958496
20
-1522.288086
11
-7433.958496
21
-1422.288086
0
LINE
8
Geometrie
62
5
6
CONTINUOUS
10
-6263.961914
20
-252.291672
11
-5963.961914
21
47.708332
0
LINE
8
Geometrie
62
5
6
CONTINUOUS
10
-14034.672852
20
-7952.291504
11
-13734.672852
21
-7652.291504
0
LINE
8
Geometrie
62
5
6
CONTINUOUS
10
-9434.672852
20
-3352.291748
11
-9334.672852
21
-3252.291748
0
LINE
8
Geometrie
62
5
6
CONTINUOUS
10
-8033.958496
20
-1951.577393
11
-7933.958496
21
-1851.577393
0
LINE
8
Geometrie
62
5
6
CONTINUOUS
10
-7884.672852
20
-1802.291626
11
-7784.672852
21
-1702.291626
0
LINE
8
Geometrie
62
5
6
CONTINUOUS
10
-7533.958496
20
-1451.577393
11
-7433.958496
21
-1351.577393
0
LINE
8
Geometrie
62
5
6
CONTINUOUS
10
-6334.672852
20
-252.291672
11
-6034.672852
21
47.708332
0
LINE
8
Geometrie
62
5
6
CONTINUOUS
10
-14105.382813
20
-7952.291504
11
-13805.382813
21
-7652.291504
0
LINE
8
Geometrie
62
5
6
CONTINUOUS
10
-9505.383789
20
-3352.291748
11
-9405.383789
21
-3252.291748
0
LINE
8
Geometrie
62
5
6
CONTINUOUS
10
-8033.958496
20
-1880.866699
11
-7855.383301
21
-1702.291626
0
LINE
8
Geometrie
62
5
6
CONTINUOUS
10
-7533.958496
20
-1380.866699
11
-7433.958496
21
-1280.866699
0
LINE
8
Geometrie
62
5
6
CONTINUOUS
10
-6405.383301
20
-252.291672
11
-6105.383301
21
47.708332
0
LINE
8
Geometrie
62
5
6
CONTINUOUS
10
-14176.093750
20
-7952.291504
11
-13876.093750
21
-7652.291504
0
LINE
8
Geometrie
62
5
6
CONTINUOUS
10
-9576.093750
20
-3352.291748
11
-9476.093750
21
-3252.291748
0
LINE
8
Geometrie
62
5
6
CONTINUOUS
10
-8033.958496
20
-1810.156006
11
-7926.094238
21
-1702.291626
0
LINE
8
Geometrie
62
5
6
CONTINUOUS
10
-7533.958496
20
-1310.156006
11
-7433.958496
21
-1210.156006
0
LINE
8
Geometrie
62
5
6
CONTINUOUS
10
-6476.094238
20
-252.291672
11
-6176.094238
21
47.708332
0
LINE
8
Geometrie
62
5
6
CONTINUOUS
10
-14246.804688
20
-7952.291504
11
-13946.804688
21
-7652.291504
0
LINE
8
Geometrie
62
5
6
CONTINUOUS
10
-9646.804688
20
-3352.291748
11
-9546.804688
21
-3252.291748
0
LINE
8
Geometrie
62
5
6
CONTINUOUS
10
-8033.958496
20
-1739.445313
11
-7996.804688
21
-1702.291626
0
LINE
8
Geometrie
62
5
6
CONTINUOUS
10
-7533.958496
20
-1239.445313
11
-7433.958496
21
-1139.445313
0
LINE
8
Geometrie
62
5
6
CONTINUOUS
10
-6546.804688
20
-252.291672
11
-6246.804688
21
47.708332
0
LINE
8
Geometrie
62
5
6
CONTINUOUS
10
-14317.515625
20
-7952.291504
11
-14017.515625
21
-7652.291504
0
LINE
8
Geometrie
62
5
6
CONTINUOUS
10
-9717.515625
20
-3352.291748
11
-9617.515625
21
-3252.291748
0
LINE
8
Geometrie
62
5
6
CONTINUOUS
10
-7533.958496
20
-1168.734741
11
-7433.958496
21
-1068.734741
0
LINE
8
Geometrie
62
5
6
CONTINUOUS
10
-6617.515625
20
-252.291672
11
-6317.515625
21
47.708332
0
LINE
8
Geometrie
62
5
6
CONTINUOUS
10
-14388.225586
20
-7952.291504
11
-14088.225586
21
-7652.291504
0
LINE
8
Geometrie
62
5
6
CONTINUOUS
10
-9788.226563
20
-3352.291748
11
-9688.226563
21
-3252.291748
0
LINE
8
Geometrie
62
5
6
CONTINUOUS
10
-7533.958496
20
-1098.024048
11
-7433.958496
21
-998.023987
0
LINE
8
Geometrie
62
5
6
CONTINUOUS
10
-6688.226074
20
-252.291672
11
-6388.226074
21
47.708332
0
LINE
8
Geometrie
62
5
6
CONTINUOUS
10
-14458.936523
20
-7952.291504
11
-14158.936523
21
-7652.291504
0
LINE
8
Geometrie
62
5
6
CONTINUOUS
10
-9858.936523
20
-3352.291748
11
-9758.936523
21
-3252.291748
0
LINE
8
Geometrie
62
5
6
CONTINUOUS
10
-7533.958496
20
-1027.313354
11
-7433.958496
21
-927.313354
0
LINE
8
Geometrie
62
5
6
CONTINUOUS
10
-6758.937012
20
-252.291672
11
-6458.937012
21
47.708332
0
LINE
8
Geometrie
62
5
6
CONTINUOUS
10
-14529.647461
20
-7952.291504
11
-14229.647461
21
-7652.291504
0
LINE
8
Geometrie
62
5
6
CONTINUOUS
10
-9929.647461
20
-3352.291748
11
-9829.647461
21
-3252.291748
0
LINE
8
Geometrie
62
5
6
CONTINUOUS
10
-7533.958496
20
-956.602661
11
-7433.958496
21
-856.602661
0
LINE
8
Geometrie
62
5
6
CONTINUOUS
10
-6829.647461
20
-252.291672
11
-6529.647461
21
47.708332
0
LINE
8
Geometrie
62
5
6
CONTINUOUS
10
-14600.358398
20
-7952.291504
11
-14300.358398
21
-7652.291504
0
LINE
8
Geometrie
62
5
6
CONTINUOUS
10
-10000.358398
20
-3352.291748
11
-9900.358398
21
-3252.291748
0
LINE
8
Geometrie
62
5
6
CONTINUOUS
10
-7533.958496
20
-885.891968
11
-7433.958496
21
-785.891968
0
LINE
8
Geometrie
62
5
6
CONTINUOUS
10
-6900.358398
20
-252.291672
11
-6600.358398
21
47.708332
0
LINE
8
Geometrie
62
5
6
CONTINUOUS
10
-14671.068359
20
-7952.291504
11
-14371.068359
21
-7652.291504
0
LINE
8
Geometrie
62
5
6
CONTINUOUS
10
-10071.069336
20
-3352.291748
11
-9971.069336
21
-3252.291748
0
LINE
8
Geometrie
62
5
6
CONTINUOUS
10
-7533.958496
20
-815.181274
11
-7433.958496
21
-715.181274
0
LINE
8
Geometrie
62
5
6
CONTINUOUS
10
-6971.068848
20
-252.291672
11
-6671.068848
21
47.708332
0
LINE
8
Geometrie
62
5
6
CONTINUOUS
10
-14741.779297
20
-7952.291504
11
-14441.779297
21
-7652.291504
0
LINE
8
Geometrie
62
5
6
CONTINUOUS
10
-10141.779297
20
-3352.291748
11
-10041.779297
21
-3252.291748
0
LINE
8
Geometrie
62
5
6
CONTINUOUS
10
-7533.958496
20
-744.470642
11
-7433.958496
21
-644.470642
0
LINE
8
Geometrie
62
5
6
CONTINUOUS
10
-7041.779785
20
-252.291672
11
-6741.779785
21
47.708332
0
LINE
8
Geometrie
62
5
6
CONTINUOUS
10
-14812.490234
20
-7952.291504
11
-14512.490234
21
-7652.291504
0
LINE
8
Geometrie
62
5
6
CONTINUOUS
10
-10212.490234
20
-3352.291748
11
-10112.490234
21
-3252.291748
0
LINE
8
Geometrie
62
5
6
CONTINUOUS
10
-7533.958496
20
-673.759949
11
-7433.958496
21
-573.759949
0
LINE
8
Geometrie
62
5
6
CONTINUOUS
10
-7112.490234
20
-252.291672
11
-6812.490234
21
47.708332
0
LINE
8
Geometrie
62
5
6
CONTINUOUS
10
-14883.201172
20
-7952.291504
11
-14583.201172
21
-7652.291504
0
LINE
8
Geometrie
62
5
6
CONTINUOUS
10
-10283.201172
20
-3352.291748
11
-10183.201172
21
-3252.291748
0
LINE
8
Geometrie
62
5
6
CONTINUOUS
10
-7533.958496
20
-603.049255
11
-7433.958496
21
-503.049255
0
LINE
8
Geometrie
62
5
6
CONTINUOUS
10
-7183.200684
20
-252.291672
11
-6883.200684
21
47.708332
0
LINE
8
Geometrie
62
5
6
CONTINUOUS
10
-14953.911133
20
-7952.291504
11
-14653.911133
21
-7652.291504
0
LINE
8
Geometrie
62
5
6
CONTINUOUS
10
-10353.912109
20
-3352.291748
11
-10253.912109
21
-3252.291748
0
LINE
8
Geometrie
62
5
6
CONTINUOUS
10
-7533.958496
20
-532.338562
11
-7433.958496
21
-432.338593
0
LINE
8
Geometrie
62
5
6
CONTINUOUS
10
-7253.911621
20
-252.291672
11
-6953.911621
21
47.708332
0
LINE
8
Geometrie
62
5
6
CONTINUOUS
10
-15024.622070
20
-7952.291504
11
-14724.622070
21
-7652.291504
0
LINE
8
Geometrie
62
5
6
CONTINUOUS
10
-10424.622070
20
-3352.291748
11
-10324.622070
21
-3252.291748
0
LINE
8
Geometrie
62
5
6
CONTINUOUS
10
-7533.958496
20
-461.627899
11
-7433.958496
21
-361.627899
0
LINE
8
Geometrie
62
5
6
CONTINUOUS
10
-7324.622070
20
-252.291672
11
-7024.622070
21
47.708332
0
LINE
8
Geometrie
62
5
6
CONTINUOUS
10
-15095.333008
20
-7952.291504
11
-14795.333008
21
-7652.291504
0
LINE
8
Geometrie
62
5
6
CONTINUOUS
10
-10495.333008
20
-3352.291748
11
-10395.333008
21
-3252.291748
0
LINE
8
Geometrie
62
5
6
CONTINUOUS
10
-7533.958496
20
-390.917236
11
-7433.958496
21
-290.917236
0
LINE
8
Geometrie
62
5
6
CONTINUOUS
10
-7395.333008
20
-252.291672
11
-7095.333008
21
47.708332
0
LINE
8
Geometrie
62
5
6
CONTINUOUS
10
-15166.042969
20
-7952.291504
11
-14866.042969
21
-7652.291504
0
LINE
8
Geometrie
62
5
6
CONTINUOUS
10
-10566.043945
20
-3352.291748
11
-10466.043945
21
-3252.291748
0
LINE
8
Geometrie
62
5
6
CONTINUOUS
10
-7533.958496
20
-320.206543
11
-7166.043457
21
47.708332
0
LINE
8
Geometrie
62
5
6
CONTINUOUS
10
-15236.753906
20
-7952.291504
11
-14936.753906
21
-7652.291504
0
LINE
8
Geometrie
62
5
6
CONTINUOUS
10
-10636.753906
20
-3352.291748
11
-10533.958008
21
-3249.495361
0
LINE
8
Geometrie
62
5
6
CONTINUOUS
10
-7536.754395
20
-252.291672
11
-7236.754395
21
47.708332
0
LINE
8
Geometrie
62
5
6
CONTINUOUS
10
-15307.464844
20
-7952.291504
11
-15007.464844
21
-7652.291504
0
LINE
8
Geometrie
62
5
6
CONTINUOUS
10
-10707.464844
20
-3352.291748
11
-10533.958008
21
-3178.784668
0
LINE
8
Geometrie
62
5
6
CONTINUOUS
10
-7607.464844
20
-252.291672
11
-7307.464844
21
47.708332
0
LINE
8
Geometrie
62
5
6
CONTINUOUS
10
-15378.175781
20
-7952.291504
11
-15078.175781
21
-7652.291504
0
LINE
8
Geometrie
62
5
6
CONTINUOUS
10
-10778.175781
20
-3352.291748
11
-10678.175781
21
-3252.291748
0
LINE
8
Geometrie
62
5
6
CONTINUOUS
10
-10633.958008
20
-3208.073975
11
-10533.958008
21
-3108.073975
0
LINE
8
Geometrie
62
5
6
CONTINUOUS
10
-7678.175781
20
-252.291672
11
-7378.175781
21
47.708332
0
LINE
8
Geometrie
62
5
6
CONTINUOUS
10
-15448.885742
20
-7952.291504
11
-15148.885742
21
-7652.291504
0
LINE
8
Geometrie
62
5
6
CONTINUOUS
10
-10848.886719
20
-3352.291748
11
-10748.886719
21
-3252.291748
0
LINE
8
Geometrie
62
5
6
CONTINUOUS
10
-10633.958008
20
-3137.363281
11
-10533.958008
21
-3037.363281
0
LINE
8
Geometrie
62
5
6
CONTINUOUS
10
-7748.886230
20
-252.291672
11
-7448.886230
21
47.708332
0
LINE
8
Geometrie
62
5
6
CONTINUOUS
10
-15519.596680
20
-7952.291504
11
-15219.596680
21
-7652.291504
0
LINE
8
Geometrie
62
5
6
CONTINUOUS
10
-10919.596680
20
-3352.291748
11
-10819.596680
21
-3252.291748
0
LINE
8
Geometrie
62
5
6
CONTINUOUS
10
-10633.958008
20
-3066.652588
11
-10533.958008
21
-2966.652588
0
LINE
8
Geometrie
62
5
6
CONTINUOUS
10
-7819.597168
20
-252.291672
11
-7519.597168
21
47.708332
0
LINE
8
Geometrie
62
5
6
CONTINUOUS
10
-15590.307617
20
-7952.291504
11
-15290.307617
21
-7652.291504
0
LINE
8
Geometrie
62
5
6
CONTINUOUS
10
-10990.307617
20
-3352.291748
11
-10890.307617
21
-3252.291748
0
LINE
8
Geometrie
62
5
6
CONTINUOUS
10
-10633.958008
20
-2995.941895
11
-10533.958008
21
-2895.941895
0
LINE
8
Geometrie
62
5
6
CONTINUOUS
10
-7890.307617
20
-252.291672
11
-7590.307617
21
47.708332
0
LINE
8
Geometrie
62
5
6
CONTINUOUS
10
-15661.018555
20
-7952.291504
11
-15361.018555
21
-7652.291504
0
LINE
8
Geometrie
62
5
6
CONTINUOUS
10
-11061.018555
20
-3352.291748
11
-10961.018555
21
-3252.291748
0
LINE
8
Geometrie
62
5
6
CONTINUOUS
10
-10633.958008
20
-2925.231201
11
-10533.958008
21
-2825.231201
0
LINE
8
Geometrie
62
5
6
CONTINUOUS
10
-7961.018555
20
-252.291672
11
-7661.018555
21
47.708332
0
LINE
8
Geometrie
62
5
6
CONTINUOUS
10
-15731.728516
20
-7952.291504
11
-15431.728516
21
-7652.291504
0
LINE
8
Geometrie
62
5
6
CONTINUOUS
10
-11131.729492
20
-3352.291748
11
-11031.729492
21
-3252.291748
0
LINE
8
Geometrie
62
5
6
CONTINUOUS
10
-10633.958008
20
-2854.520752
11
-10533.958008
21
-2754.520752
0
LINE
8
Geometrie
62
5
6
CONTINUOUS
10
-8031.729004
20
-252.291672
11
-7731.729004
21
47.708332
0
LINE
8
Geometrie
62
5
6
CONTINUOUS
10
-15802.439453
20
-7952.291504
11
-15502.439453
21
-7652.291504
0
LINE
8
Geometrie
62
5
6
CONTINUOUS
10
-11202.439453
20
-3352.291748
11
-11102.439453
21
-3252.291748
0
LINE
8
Geometrie
62
5
6
CONTINUOUS
10
-10633.958008
20
-2783.810059
11
-10533.958008
21
-2683.810059
0
LINE
8
Geometrie
62
5
6
CONTINUOUS
10
-8102.439941
20
-252.291672
11
-7802.439941
21
47.708332
0
LINE
8
Geometrie
62
5
6
CONTINUOUS
10
-15873.150391
20
-7952.291504
11
-15573.150391
21
-7652.291504
0
LINE
8
Geometrie
62
5
6
CONTINUOUS
10
-11273.150391
20
-3352.291748
11
-11173.150391
21
-3252.291748
0
LINE
8
Geometrie
62
5
6
CONTINUOUS
10
-10633.958008
20
-2713.099365
11
-10533.958008
21
-2613.099365
0
LINE
8
Geometrie
62
5
6
CONTINUOUS
10
-8173.150391
20
-252.291672
11
-7873.150391
21
47.708332
0
LINE
8
Geometrie
62
5
6
CONTINUOUS
10
-15943.861328
20
-7952.291504
11
-15643.861328
21
-7652.291504
0
LINE
8
Geometrie
62
5
6
CONTINUOUS
10
-11343.861328
20
-3352.291748
11
-11243.861328
21
-3252.291748
0
LINE
8
Geometrie
62
5
6
CONTINUOUS
10
-10633.958008
20
-2642.388672
11
-10533.958008
21
-2542.388672
0
LINE
8
Geometrie
62
5
6
CONTINUOUS
10
-8243.861328
20
-252.291672
11
-7943.860840
21
47.708332
0
LINE
8
Geometrie
62
5
6
CONTINUOUS
10
-16014.571289
20
-7952.291504
11
-15714.571289
21
-7652.291504
0
LINE
8
Geometrie
62
5
6
CONTINUOUS
10
-11414.572266
20
-3352.291748
11
-11314.572266
21
-3252.291748
0
LINE
8
Geometrie
62
5
6
CONTINUOUS
10
-10633.958008
20
-2571.677979
11
-10533.958008
21
-2471.677979
0
LINE
8
Geometrie
62
5
6
CONTINUOUS
10
-8314.571289
20
-252.291672
11
-8014.571777
21
47.708332
0
LINE
8
Geometrie
62
5
6
CONTINUOUS
10
-16033.958008
20
-7900.967285
11
-15733.958008
21
-7600.967285
0
LINE
8
Geometrie
62
5
6
CONTINUOUS
10
-11485.282227
20
-3352.291748
11
-11385.282227
21
-3252.291748
0
LINE
8
Geometrie
62
5
6
CONTINUOUS
10
-10633.958008
20
-2500.967285
11
-10533.958008
21
-2400.967285
0
LINE
8
Geometrie
62
5
6
CONTINUOUS
10
-8385.282227
20
-252.291672
11
-8085.282227
21
47.708332
0
LINE
8
Geometrie
62
5
6
CONTINUOUS
10
-16033.958008
20
-7830.256348
11
-15733.958008
21
-7530.256348
0
LINE
8
Geometrie
62
5
6
CONTINUOUS
10
-11555.993164
20
-3352.291748
11
-11455.993164
21
-3252.291748
0
LINE
8
Geometrie
62
5
6
CONTINUOUS
10
-10633.958008
20
-2430.256592
11
-10533.958008
21
-2330.256592
0
LINE
8
Geometrie
62
5
6
CONTINUOUS
10
-8455.993164
20
-252.291672
11
-8155.993164
21
47.708332
0
LINE
8
Geometrie
62
5
6
CONTINUOUS
10
-16033.958008
20
-7759.545898
11
-15733.958008
21
-7459.545898
0
LINE
8
Geometrie
62
5
6
CONTINUOUS
10
-11626.704102
20
-3352.291748
11
-11526.704102
21
-3252.291748
0
LINE
8
Geometrie
62
5
6
CONTINUOUS
10
-10633.958008
20
-2359.545898
11
-10533.958008
21
-2259.545898
0
LINE
8
Geometrie
62
5
6
CONTINUOUS
10
-8526.704102
20
-252.291672
11
-8226.704102
21
47.708332
0
LINE
8
Geometrie
62
5
6
CONTINUOUS
10
-16033.958008
20
-7688.835449
11
-15733.958008
21
-7388.835449
0
LINE
8
Geometrie
62
5
6
CONTINUOUS
10
-11697.414063
20
-3352.291748
11
-11597.414063
21
-3252.291748
0
LINE
8
Geometrie
62
5
6
CONTINUOUS
10
-10633.958008
20
-2288.835205
11
-10533.958008
21
-2188.835205
0
LINE
8
Geometrie
62
5
6
CONTINUOUS
10
-8597.414063
20
-252.291672
11
-8297.414063
21
47.708332
0
LINE
8
Geometrie
62
5
6
CONTINUOUS
10
-16033.958008
20
-7618.124512
11
-15733.958008
21
-7318.124512
0
LINE
8
Geometrie
62
5
6
CONTINUOUS
10
-11768.125000
20
-3352.291748
11
-11668.125000
21
-3252.291748
0
LINE
8
Geometrie
62
5
6
CONTINUOUS
10
-10633.958008
20
-2218.124512
11
-10533.958008
21
-2118.124512
0
LINE
8
Geometrie
62
5
6
CONTINUOUS
10
-8668.125000
20
-252.291672
11
-8368.125000
21
47.708332
0
LINE
8
Geometrie
62
5
6
CONTINUOUS
10
-16033.958008
20
-7547.414063
11
-15733.958008
21
-7247.414063
0
LINE
8
Geometrie
62
5
6
CONTINUOUS
10
-11838.835938
20
-3352.291748
11
-11738.835938
21
-3252.291748
0
LINE
8
Geometrie
62
5
6
CONTINUOUS
10
-10633.958008
20
-2147.413818
11
-10533.958008
21
-2047.413818
0
LINE
8
Geometrie
62
5
6
CONTINUOUS
10
-8738.835938
20
-252.291672
11
-8438.835938
21
47.708332
0
LINE
8
Geometrie
62
5
6
CONTINUOUS
10
-16033.958008
20
-7476.703125
11
-15733.958008
21
-7176.703125
0
LINE
8
Geometrie
62
5
6
CONTINUOUS
10
-11909.546875
20
-3352.291748
11
-11809.546875
21
-3252.291748
0
LINE
8
Geometrie
62
5
6
CONTINUOUS
10
-10633.958008
20
-2076.703125
11
-10533.958008
21
-1976.703125
0
LINE
8
Geometrie
62
5
6
CONTINUOUS
10
-8809.546875
20
-252.291672
11
-8509.546875
21
47.708332
0
LINE
8
Geometrie
62
5
6
CONTINUOUS
10
-16033.958008
20
-7405.992676
11
-15733.958008
21
-7105.992676
0
LINE
8
Geometrie
62
5
6
CONTINUOUS
10
-11980.256836
20
-3352.291748
11
-11880.256836
21
-3252.291748
0
LINE
8
Geometrie
62
5
6
CONTINUOUS
10
-10633.958008
20
-2005.992554
11
-10533.958008
21
-1905.992554
0
LINE
8
Geometrie
62
5
6
CONTINUOUS
10
-8880.256836
20
-252.291672
11
-8580.256836
21
47.708332
0
LINE
8
Geometrie
62
5
6
CONTINUOUS
10
-16033.958008
20
-7335.281738
11
-15733.958008
21
-7035.281738
0
LINE
8
Geometrie
62
5
6
CONTINUOUS
10
-12050.967773
20
-3352.291748
11
-11950.967773
21
-3252.291748
0
LINE
8
Geometrie
62
5
6
CONTINUOUS
10
-10633.958008
20
-1935.281860
11
-10533.958008
21
-1835.281860
0
LINE
8
Geometrie
62
5
6
CONTINUOUS
10
-8950.967773
20
-252.291672
11
-8650.967773
21
47.708332
0
LINE
8
Geometrie
62
5
6
CONTINUOUS
10
-16033.958008
20
-7264.571289
11
-15733.958008
21
-6964.571289
0
LINE
8
Geometrie
62
5
6
CONTINUOUS
10
-12121.678711
20
-3352.291748
11
-12021.678711
21
-3252.291748
0
LINE
8
Geometrie
62
5
6
CONTINUOUS
10
-10633.958008
20
-1864.571167
11
-10533.958008
21
-1764.571167
0
LINE
8
Geometrie
62
5
6
CONTINUOUS
10
-9021.678711
20
-252.291672
11
-8721.678711
21
47.708332
0
LINE
8
Geometrie
62
5
6
CONTINUOUS
10
-16033.958008
20
-7193.860352
11
-15733.958008
21
-6893.860352
0
LINE
8
Geometrie
62
5
6
CONTINUOUS
10
-12133.958008
20
-3293.860352
11
-12033.958008
21
-3193.860352
0
LINE
8
Geometrie
62
5
6
CONTINUOUS
10
-10642.389648
20
-1802.291626
11
-10533.958008
21
-1693.860474
0
LINE
8
Geometrie
62
5
6
CONTINUOUS
10
-9092.389648
20
-252.291672
11
-8792.389648
21
47.708332
0
LINE
8
Geometrie
62
5
6
CONTINUOUS
10
-16033.958008
20
-7123.149902
11
-15733.958008
21
-6823.149902
0
LINE
8
Geometrie
62
5
6
CONTINUOUS
10
-12133.958008
20
-3223.149902
11
-12033.958008
21
-3123.149902
0
LINE
8
Geometrie
62
5
6
CONTINUOUS
10
-10713.099609
20
-1802.291626
11
-10533.958008
21
-1623.149780
0
LINE
8
Geometrie
62
5
6
CONTINUOUS
10
-9163.099609
20
-252.291672
11
-8863.099609
21
47.708332
0
LINE
8
Geometrie
62
5
6
CONTINUOUS
10
-16033.958008
20
-7052.438965
11
-15733.958008
21
-6752.438965
0
LINE
8
Geometrie
62
5
6
CONTINUOUS
10
-12133.958008
20
-3152.439209
11
-12033.958008
21
-3052.439209
0
LINE
8
Geometrie
62
5
6
CONTINUOUS
10
-10783.810547
20
-1802.291626
11
-10683.810547
21
-1702.291626
0
LINE
8
Geometrie
62
5
6
CONTINUOUS
10
-10633.958008
20
-1652.439087
11
-10533.958008
21
-1552.439087
0
LINE
8
Geometrie
62
5
6
CONTINUOUS
10
-9233.810547
20
-252.291672
11
-8933.810547
21
47.708332
0
LINE
8
Geometrie
62
5
6
CONTINUOUS
10
-16033.958008
20
-6981.728516
11
-15733.958008
21
-6681.728516
0
LINE
8
Geometrie
62
5
6
CONTINUOUS
10
-12133.958008
20
-3081.728516
11
-12033.958008
21
-2981.728516
0
LINE
8
Geometrie
62
5
6
CONTINUOUS
10
-10854.521484
20
-1802.291626
11
-10754.521484
21
-1702.291626
0
LINE
8
Geometrie
62
5
6
CONTINUOUS
10
-10633.958008
20
-1581.728394
11
-10533.958008
21
-1481.728394
0
LINE
8
Geometrie
62
5
6
CONTINUOUS
10
-9304.521484
20
-252.291672
11
-9004.521484
21
47.708332
0
LINE
8
Geometrie
62
5
6
CONTINUOUS
10
-16033.958008
20
-6911.017578
11
-15733.958008
21
-6611.017578
0
LINE
8
Geometrie
62
5
6
CONTINUOUS
10
-12133.958008
20
-3011.017822
11
-12033.958008
21
-2911.017822
0
LINE
8
Geometrie
62
5
6
CONTINUOUS
10
-10925.231445
20
-1802.291626
11
-10825.231445
21
-1702.291626
0
LINE
8
Geometrie
62
5
6
CONTINUOUS
10
-10633.958008
20
-1511.017700
11
-10533.958008
21
-1411.017700
0
LINE
8
Geometrie
62
5
6
CONTINUOUS
10
-9375.231445
20
-252.291672
11
-9075.231445
21
47.708332
0
LINE
8
Geometrie
62
5
6
CONTINUOUS
10
-16033.958008
20
-6840.307129
11
-15733.958008
21
-6540.307129
0
LINE
8
Geometrie
62
5
6
CONTINUOUS
10
-12133.958008
20
-2940.307129
11
-12033.958008
21
-2840.307129
0
LINE
8
Geometrie
62
5
6
CONTINUOUS
10
-10995.942383
20
-1802.291626
11
-10895.942383
21
-1702.291626
0
LINE
8
Geometrie
62
5
6
CONTINUOUS
10
-10633.958008
20
-1440.307129
11
-10533.958008
21
-1340.307129
0
LINE
8
Geometrie
62
5
6
CONTINUOUS
10
-9445.942383
20
-252.291672
11
-9145.942383
21
47.708332
0
LINE
8
Geometrie
62
5
6
CONTINUOUS
10
-16033.958008
20
-6769.596191
11
-15733.958008
21
-6469.596191
0
LINE
8
Geometrie
62
5
6
CONTINUOUS
10
-12133.958008
20
-2869.596436
11
-12033.958008
21
-2769.596436
0
LINE
8
Geometrie
62
5
6
CONTINUOUS
10
-11066.653320
20
-1802.291626
11
-10966.653320
21
-1702.291626
0
LINE
8
Geometrie
62
5
6
CONTINUOUS
10
-10633.958008
20
-1369.596436
11
-10533.958008
21
-1269.596436
0
LINE
8
Geometrie
62
5
6
CONTINUOUS
10
-9516.653320
20
-252.291672
11
-9216.653320
21
47.708332
0
LINE
8
Geometrie
62
5
6
CONTINUOUS
10
-16033.958008
20
-6698.885742
11
-15733.958008
21
-6398.885742
0
LINE
8
Geometrie
62
5
6
CONTINUOUS
10
-12133.958008
20
-2798.885742
11
-12033.958008
21
-2698.885742
0
LINE
8
Geometrie
62
5
6
CONTINUOUS
10
-11137.364258
20
-1802.291626
11
-11037.364258
21
-1702.291626
0
LINE
8
Geometrie
62
5
6
CONTINUOUS
10
-10633.958008
20
-1298.885742
11
-10533.958008
21
-1198.885742
0
LINE
8
Geometrie
62
5
6
CONTINUOUS
10
-9587.364258
20
-252.291672
11
-9287.364258
21
47.708332
0
LINE
8
Geometrie
62
5
6
CONTINUOUS
10
-16033.958008
20
-6628.174805
11
-15733.958008
21
-6328.174805
0
LINE
8
Geometrie
62
5
6
CONTINUOUS
10
-12133.958008
20
-2728.175049
11
-12033.958008
21
-2628.175049
0
LINE
8
Geometrie
62
5
6
CONTINUOUS
10
-11208.074219
20
-1802.291626
11
-11108.074219
21
-1702.291626
0
LINE
8
Geometrie
62
5
6
CONTINUOUS
10
-10633.958008
20
-1228.175049
11
-10533.958008
21
-1128.175049
0
LINE
8
Geometrie
62
5
6
CONTINUOUS
10
-9658.074219
20
-252.291672
11
-9358.074219
21
47.708332
0
LINE
8
Geometrie
62
5
6
CONTINUOUS
10
-16033.958008
20
-6557.464355
11
-15733.958008
21
-6257.464355
0
LINE
8
Geometrie
62
5
6
CONTINUOUS
10
-12133.958008
20
-2657.464355
11
-12033.958008
21
-2557.464355
0
LINE
8
Geometrie
62
5
6
CONTINUOUS
10
-11278.785156
20
-1802.291626
11
-11178.785156
21
-1702.291626
0
LINE
8
Geometrie
62
5
6
CONTINUOUS
10
-10633.958008
20
-1157.464355
11
-10533.958008
21
-1057.464355
0
LINE
8
Geometrie
62
5
6
CONTINUOUS
10
-9728.785156
20
-252.291672
11
-9428.785156
21
47.708332
0
LINE
8
Geometrie
62
5
6
CONTINUOUS
10
-16033.958008
20
-6486.753906
11
-15733.958008
21
-6186.753906
0
LINE
8
Geometrie
62
5
6
CONTINUOUS
10
-12133.958008
20
-2586.753662
11
-12033.958008
21
-2486.753662
0
LINE
8
Geometrie
62
5
6
CONTINUOUS
10
-11349.496094
20
-1802.291626
11
-11249.496094
21
-1702.291626
0
LINE
8
Geometrie
62
5
6
CONTINUOUS
10
-10633.958008
20
-1086.753662
11
-10533.958008
21
-986.753662
0
LINE
8
Geometrie
62
5
6
CONTINUOUS
10
-9799.496094
20
-252.291672
11
-9499.496094
21
47.708332
0
LINE
8
Geometrie
62
5
6
CONTINUOUS
10
-16033.958008
20
-6416.042969
11
-15733.958008
21
-6116.042969
0
LINE
8
Geometrie
62
5
6
CONTINUOUS
10
-12133.958008
20
-2516.042969
11
-12033.958008
21
-2416.042969
0
LINE
8
Geometrie
62
5
6
CONTINUOUS
10
-11420.207031
20
-1802.291626
11
-11320.207031
21
-1702.291626
0
LINE
8
Geometrie
62
5
6
CONTINUOUS
10
-10633.958008
20
-1016.043030
11
-10533.958008
21
-916.043030
0
LINE
8
Geometrie
62
5
6
CONTINUOUS
10
-9870.207031
20
-252.291672
11
-9570.207031
21
47.708332
0
LINE
8
Geometrie
62
5
6
CONTINUOUS
10
-16033.958008
20
-6345.332520
11
-15733.958008
21
-6045.332520
0
LINE
8
Geometrie
62
5
6
CONTINUOUS
10
-12133.958008
20
-2445.332275
11
-12033.958008
21
-2345.332275
0
LINE
8
Geometrie
62
5
6
CONTINUOUS
10
-11490.916992
20
-1802.291626
11
-11390.916992
21
-1702.291626
0
LINE
8
Geometrie
62
5
6
CONTINUOUS
10
-10633.958008
20
-945.332336
11
-10533.958008
21
-845.332336
0
LINE
8
Geometrie
62
5
6
CONTINUOUS
10
-9940.916992
20
-252.291672
11
-9640.916992
21
47.708332
0
LINE
8
Geometrie
62
5
6
CONTINUOUS
10
-16033.958008
20
-6274.621582
11
-15733.958008
21
-5974.621582
0
LINE
8
Geometrie
62
5
6
CONTINUOUS
10
-12133.958008
20
-2374.621582
11
-12033.958008
21
-2274.621582
0
LINE
8
Geometrie
62
5
6
CONTINUOUS
10
-11561.627930
20
-1802.291626
11
-11461.627930
21
-1702.291626
0
LINE
8
Geometrie
62
5
6
CONTINUOUS
10
-10633.958008
20
-874.621643
11
-10533.958008
21
-774.621643
0
LINE
8
Geometrie
62
5
6
CONTINUOUS
10
-10011.627930
20
-252.291672
11
-9711.627930
21
47.708332
0
LINE
8
Geometrie
62
5
6
CONTINUOUS
10
-16033.958008
20
-6203.911133
11
-15733.958008
21
-5903.911133
0
LINE
8
Geometrie
62
5
6
CONTINUOUS
10
-12133.958008
20
-2303.910889
11
-12033.958008
21
-2203.910889
0
LINE
8
Geometrie
62
5
6
CONTINUOUS
10
-11632.338867
20
-1802.291626
11
-11532.338867
21
-1702.291626
0
LINE
8
Geometrie
62
5
6
CONTINUOUS
10
-10633.958008
20
-803.910950
11
-10533.958008
21
-703.910950
0
LINE
8
Geometrie
62
5
6
CONTINUOUS
10
-10082.338867
20
-252.291672
11
-9782.338867
21
47.708332
0
LINE
8
Geometrie
62
5
6
CONTINUOUS
10
-16033.958008
20
-6133.200195
11
-15733.958008
21
-5833.200195
0
LINE
8
Geometrie
62
5
6
CONTINUOUS
10
-12133.958008
20
-2233.200195
11
-12033.958008
21
-2133.200195
0
LINE
8
Geometrie
62
5
6
CONTINUOUS
10
-11703.049805
20
-1802.291626
11
-11603.049805
21
-1702.291626
0
LINE
8
Geometrie
62
5
6
CONTINUOUS
10
-10633.958008
20
-733.200317
11
-10533.958008
21
-633.200317
0
LINE
8
Geometrie
62
5
6
CONTINUOUS
10
-10153.049805
20
-252.291672
11
-9853.049805
21
47.708332
0
LINE
8
Geometrie
62
5
6
CONTINUOUS
10
-16033.958008
20
-6062.489746
11
-15733.958008
21
-5762.489746
0
LINE
8
Geometrie
62
5
6
CONTINUOUS
10
-12133.958008
20
-2162.489502
11
-12033.958008
21
-2062.489502
0
LINE
8
Geometrie
62
5
6
CONTINUOUS
10
-11773.759766
20
-1802.291626
11
-11673.759766
21
-1702.291626
0
LINE
8
Geometrie
62
5
6
CONTINUOUS
10
-10633.958008
20
-662.489624
11
-10533.958008
21
-562.489624
0
LINE
8
Geometrie
62
5
6
CONTINUOUS
10
-10223.759766
20
-252.291672
11
-9923.759766
21
47.708332
0
LINE
8
Geometrie
62
5
6
CONTINUOUS
10
-16033.958008
20
-5991.778809
11
-15733.958008
21
-5691.778809
0
LINE
8
Geometrie
62
5
6
CONTINUOUS
10
-12133.958008
20
-2091.779053
11
-12033.958008
21
-1991.778931
0
LINE
8
Geometrie
62
5
6
CONTINUOUS
10
-11844.470703
20
-1802.291626
11
-11744.470703
21
-1702.291626
0
LINE
8
Geometrie
62
5
6
CONTINUOUS
10
-10633.958008
20
-591.778931
11
-10533.958008
21
-491.778931
0
LINE
8
Geometrie
62
5
6
CONTINUOUS
10
-10294.470703
20
-252.291672
11
-9994.470703
21
47.708332
0
LINE
8
Geometrie
62
5
6
CONTINUOUS
10
-16033.958008
20
-5921.068359
11
-15733.958008
21
-5621.068359
0
LINE
8
Geometrie
62
5
6
CONTINUOUS
10
-12133.958008
20
-2021.068237
11
-12033.958008
21
-1921.068237
0
LINE
8
Geometrie
62
5
6
CONTINUOUS
10
-11915.181641
20
-1802.291626
11
-11815.181641
21
-1702.291626
0
LINE
8
Geometrie
62
5
6
CONTINUOUS
10
-10633.958008
20
-521.068237
11
-10533.958008
21
-421.068268
0
LINE
8
Geometrie
62
5
6
CONTINUOUS
10
-10365.181641
20
-252.291672
11
-10065.181641
21
47.708332
0
LINE
8
Geometrie
62
5
6
CONTINUOUS
10
-16033.958008
20
-5850.357422
11
-15733.958008
21
-5550.357422
0
LINE
8
Geometrie
62
5
6
CONTINUOUS
10
-12133.958008
20
-1950.357544
11
-12033.958008
21
-1850.357544
0
LINE
8
Geometrie
62
5
6
CONTINUOUS
10
-11985.891602
20
-1802.291626
11
-11885.891602
21
-1702.291626
0
LINE
8
Geometrie
62
5
6
CONTINUOUS
10
-10633.958008
20
-450.357574
11
-10533.958008
21
-350.357574
0
LINE
8
Geometrie
62
5
6
CONTINUOUS
10
-10435.892578
20
-252.291672
11
-10135.892578
21
47.708332
0
LINE
8
Geometrie
62
5
6
CONTINUOUS
10
-16033.958008
20
-5779.646973
11
-15733.958008
21
-5479.646973
0
LINE
8
Geometrie
62
5
6
CONTINUOUS
10
-12133.958008
20
-1879.646851
11
-11956.602539
21
-1702.291626
0
LINE
8
Geometrie
62
5
6
CONTINUOUS
10
-10633.958008
20
-379.646912
11
-10533.958008
21
-279.646912
0
LINE
8
Geometrie
62
5
6
CONTINUOUS
10
-10506.602539
20
-252.291672
11
-10206.602539
21
47.708332
0
LINE
8
Geometrie
62
5
6
CONTINUOUS
10
-16033.958008
20
-5708.936035
11
-15733.958008
21
-5408.936035
0
LINE
8
Geometrie
62
5
6
CONTINUOUS
10
-12133.958008
20
-1808.936279
11
-12027.313477
21
-1702.291626
0
LINE
8
Geometrie
62
5
6
CONTINUOUS
10
-10633.958008
20
-308.936218
11
-10277.313477
21
47.708332
0
LINE
8
Geometrie
62
5
6
CONTINUOUS
10
-16033.958008
20
-5638.225586
11
-15733.958008
21
-5338.225586
0
LINE
8
Geometrie
62
5
6
CONTINUOUS
10
-12133.958008
20
-1738.225586
11
-12033.958008
21
-1638.225586
0
LINE
8
Geometrie
62
5
6
CONTINUOUS
10
-10648.024414
20
-252.291672
11
-10348.024414
21
47.708332
0
LINE
8
Geometrie
62
5
6
CONTINUOUS
10
-16033.958008
20
-5567.514648
11
-15733.958008
21
-5267.514648
0
LINE
8
Geometrie
62
5
6
CONTINUOUS
10
-12133.958008
20
-1667.514893
11
-12033.958008
21
-1567.514893
0
LINE
8
Geometrie
62
5
6
CONTINUOUS
10
-10718.734375
20
-252.291672
11
-10418.734375
21
47.708332
0
LINE
8
Geometrie
62
5
6
CONTINUOUS
10
-16033.958008
20
-5496.804199
11
-15733.958008
21
-5196.804199
0
LINE
8
Geometrie
62
5
6
CONTINUOUS
10
-12133.958008
20
-1596.804199
11
-12033.958008
21
-1496.804199
0
LINE
8
Geometrie
62
5
6
CONTINUOUS
10
-10789.445313
20
-252.291672
11
-10489.445313
21
47.708332
0
LINE
8
Geometrie
62
5
6
CONTINUOUS
10
-16033.958008
20
-5426.093750
11
-15733.958008
21
-5126.093750
0
LINE
8
Geometrie
62
5
6
CONTINUOUS
10
-12133.958008
20
-1526.093506
11
-12033.958008
21
-1426.093506
0
LINE
8
Geometrie
62
5
6
CONTINUOUS
10
-10860.156250
20
-252.291672
11
-10560.156250
21
47.708332
0
LINE
8
Geometrie
62
5
6
CONTINUOUS
10
-16033.958008
20
-5355.382813
11
-15733.958008
21
-5055.382813
0
LINE
8
Geometrie
62
5
6
CONTINUOUS
10
-12133.958008
20
-1455.382813
11
-12033.958008
21
-1355.382813
0
LINE
8
Geometrie
62
5
6
CONTINUOUS
10
-10930.867188
20
-252.291672
11
-10630.867188
21
47.708332
0
LINE
8
Geometrie
62
5
6
CONTINUOUS
10
-16033.958008
20
-5284.672363
11
-15733.958008
21
-4984.672363
0
LINE
8
Geometrie
62
5
6
CONTINUOUS
10
-12133.958008
20
-1384.672119
11
-12033.958008
21
-1284.672119
0
LINE
8
Geometrie
62
5
6
CONTINUOUS
10
-11001.577148
20
-252.291672
11
-10701.577148
21
47.708332
0
LINE
8
Geometrie
62
5
6
CONTINUOUS
10
-16033.958008
20
-5213.961426
11
-15733.958008
21
-4913.961426
0
LINE
8
Geometrie
62
5
6
CONTINUOUS
10
-12133.958008
20
-1313.961426
11
-12033.958008
21
-1213.961426
0
LINE
8
Geometrie
62
5
6
CONTINUOUS
10
-11072.288086
20
-252.291672
11
-10772.288086
21
47.708332
0
LINE
8
Geometrie
62
5
6
CONTINUOUS
10
-16033.958008
20
-5143.250977
11
-15733.958008
21
-4843.250977
0
LINE
8
Geometrie
62
5
6
CONTINUOUS
10
-12133.958008
20
-1243.250854
11
-12033.958008
21
-1143.250854
0
LINE
8
Geometrie
62
5
6
CONTINUOUS
10
-11142.999023
20
-252.291672
11
-10842.999023
21
47.708332
0
LINE
8
Geometrie
62
5
6
CONTINUOUS
10
-16033.958008
20
-5072.540039
11
-15733.958008
21
-4772.540039
0
LINE
8
Geometrie
62
5
6
CONTINUOUS
10
-12133.958008
20
-1172.540161
11
-12033.958008
21
-1072.540161
0
LINE
8
Geometrie
62
5
6
CONTINUOUS
10
-11213.709961
20
-252.291672
11
-10913.709961
21
47.708332
0
LINE
8
Geometrie
62
5
6
CONTINUOUS
10
-16033.958008
20
-5001.829590
11
-15733.958008
21
-4701.829590
0
LINE
8
Geometrie
62
5
6
CONTINUOUS
10
-12133.958008
20
-1101.829468
11
-12033.958008
21
-1001.829468
0
LINE
8
Geometrie
62
5
6
CONTINUOUS
10
-11284.419922
20
-252.291672
11
-10984.419922
21
47.708332
0
LINE
8
Geometrie
62
5
6
CONTINUOUS
10
-16033.958008
20
-4931.118652
11
-15733.958008
21
-4631.118652
0
LINE
8
Geometrie
62
5
6
CONTINUOUS
10
-12133.958008
20
-1031.118774
11
-12033.958008
21
-931.118774
0
LINE
8
Geometrie
62
5
6
CONTINUOUS
10
-11355.130859
20
-252.291672
11
-11055.130859
21
47.708332
0
LINE
8
Geometrie
62
5
6
CONTINUOUS
10
-16033.958008
20
-4860.408203
11
-15733.958008
21
-4560.408203
0
LINE
8
Geometrie
62
5
6
CONTINUOUS
10
-12133.958008
20
-960.408081
11
-12033.958008
21
-860.408081
0
LINE
8
Geometrie
62
5
6
CONTINUOUS
10
-11425.841797
20
-252.291672
11
-11125.841797
21
47.708332
0
LINE
8
Geometrie
62
5
6
CONTINUOUS
10
-16033.958008
20
-4789.697266
11
-15733.958008
21
-4489.697266
0
LINE
8
Geometrie
62
5
6
CONTINUOUS
10
-12133.958008
20
-889.697388
11
-12033.958008
21
-789.697388
0
LINE
8
Geometrie
62
5
6
CONTINUOUS
10
-11496.552734
20
-252.291672
11
-11196.552734
21
47.708332
0
LINE
8
Geometrie
62
5
6
CONTINUOUS
10
-16033.958008
20
-4718.986816
11
-15733.958008
21
-4418.986816
0
LINE
8
Geometrie
62
5
6
CONTINUOUS
10
-12133.958008
20
-818.986755
11
-12033.958008
21
-718.986755
0
LINE
8
Geometrie
62
5
6
CONTINUOUS
10
-11567.262695
20
-252.291672
11
-11267.262695
21
47.708332
0
LINE
8
Geometrie
62
5
6
CONTINUOUS
10
-16033.958008
20
-4648.275879
11
-15733.958008
21
-4348.275879
0
LINE
8
Geometrie
62
5
6
CONTINUOUS
10
-12133.958008
20
-748.276062
11
-12033.958008
21
-648.276062
0
LINE
8
Geometrie
62
5
6
CONTINUOUS
10
-11637.973633
20
-252.291672
11
-11337.973633
21
47.708332
0
LINE
8
Geometrie
62
5
6
CONTINUOUS
10
-16033.958008
20
-4577.565430
11
-15733.958008
21
-4277.565430
0
LINE
8
Geometrie
62
5
6
CONTINUOUS
10
-12133.958008
20
-677.565369
11
-12033.958008
21
-577.565369
0
LINE
8
Geometrie
62
5
6
CONTINUOUS
10
-11708.684570
20
-252.291672
11
-11408.684570
21
47.708332
0
LINE
8
Geometrie
62
5
6
CONTINUOUS
10
-16033.958008
20
-4506.854492
11
-15733.958008
21
-4206.854492
0
LINE
8
Geometrie
62
5
6
CONTINUOUS
10
-12133.958008
20
-606.854675
11
-12033.958008
21
-506.854706
0
LINE
8
Geometrie
62
5
6
CONTINUOUS
10
-11779.394531
20
-252.291672
11
-11479.394531
21
47.708332
0
LINE
8
Geometrie
62
5
6
CONTINUOUS
10
-16033.958008
20
-4436.144043
11
-15733.958008
21
-4136.144043
0
LINE
8
Geometrie
62
5
6
CONTINUOUS
10
-12133.958008
20
-536.144043
11
-12033.958008
21
-436.144012
0
LINE
8
Geometrie
62
5
6
CONTINUOUS
10
-11850.105469
20
-252.291672
11
-11550.105469
21
47.708332
0
LINE
8
Geometrie
62
5
6
CONTINUOUS
10
-16033.958008
20
-4365.433105
11
-15733.958008
21
-4065.433350
0
LINE
8
Geometrie
62
5
6
CONTINUOUS
10
-12133.958008
20
-465.433350
11
-12033.958008
21
-365.433350
0
LINE
8
Geometrie
62
5
6
CONTINUOUS
10
-11920.816406
20
-252.291672
11
-11620.816406
21
47.708332
0
LINE
8
Geometrie
62
5
6
CONTINUOUS
10
-16033.958008
20
-4294.722656
11
-15733.958008
21
-3994.722656
0
LINE
8
Geometrie
62
5
6
CONTINUOUS
10
-12133.958008
20
-394.722656
11
-12033.958008
21
-294.722656
0
LINE
8
Geometrie
62
5
6
CONTINUOUS
10
-11991.527344
20
-252.291672
11
-11691.527344
21
47.708332
0
LINE
8
Geometrie
62
5
6
CONTINUOUS
10
-16033.958008
20
-4224.012207
11
-15733.958008
21
-3924.011963
0
LINE
8
Geometrie
62
5
6
CONTINUOUS
10
-12133.958008
20
-324.011993
11
-11762.237305
21
47.708332
0
LINE
8
Geometrie
62
5
6
CONTINUOUS
10
-16033.958008
20
-4153.301270
11
-15733.958008
21
-3853.301270
0
LINE
8
Geometrie
62
5
6
CONTINUOUS
10
-12133.958008
20
-253.301300
11
-11832.948242
21
47.708332
0
LINE
8
Geometrie
62
5
6
CONTINUOUS
10
-16033.958008
20
-4082.590576
11
-15733.958008
21
-3782.590576
0
LINE
8
Geometrie
62
5
6
CONTINUOUS
10
-12203.659180
20
-252.291672
11
-11903.659180
21
47.708332
0
LINE
8
Geometrie
62
5
6
CONTINUOUS
10
-16033.958008
20
-4011.879883
11
-15733.958008
21
-3711.879883
0
LINE
8
Geometrie
62
5
6
CONTINUOUS
10
-12274.370117
20
-252.291672
11
-11974.370117
21
47.708332
0
LINE
8
Geometrie
62
5
6
CONTINUOUS
10
-16033.958008
20
-3941.169189
11
-15733.958008
21
-3641.169189
0
LINE
8
Geometrie
62
5
6
CONTINUOUS
10
-12345.080078
20
-252.291672
11
-12045.080078
21
47.708332
0
LINE
8
Geometrie
62
5
6
CONTINUOUS
10
-16033.958008
20
-3870.458496
11
-15733.958008
21
-3570.458496
0
LINE
8
Geometrie
62
5
6
CONTINUOUS
10
-12415.791016
20
-252.291672
11
-12115.791016
21
47.708332
0
LINE
8
Geometrie
62
5
6
CONTINUOUS
10
-16033.958008
20
-3799.747803
11
-15733.958008
21
-3499.747803
0
LINE
8
Geometrie
62
5
6
CONTINUOUS
10
-12486.501953
20
-252.291672
11
-12186.501953
21
47.708332
0
LINE
8
Geometrie
62
5
6
CONTINUOUS
10
-16033.958008
20
-3729.037354
11
-15733.958008
21
-3429.037354
0
LINE
8
Geometrie
62
5
6
CONTINUOUS
10
-12557.212891
20
-252.291672
11
-12257.212891
21
47.708332
0
LINE
8
Geometrie
62
5
6
CONTINUOUS
10
-16033.958008
20
-3658.326660
11
-15733.958008
21
-3358.326660
0
LINE
8
Geometrie
62
5
6
CONTINUOUS
10
-12627.922852
20
-252.291672
11
-12327.922852
21
47.708332
0
LINE
8
Geometrie
62
5
6
CONTINUOUS
10
-16033.958008
20
-3587.615967
11
-15733.958008
21
-3287.615967
0
LINE
8
Geometrie
62
5
6
CONTINUOUS
10
-12698.633789
20
-252.291672
11
-12398.633789
21
47.708332
0
LINE
8
Geometrie
62
5
6
CONTINUOUS
10
-16033.958008
20
-3516.905273
11
-15733.958008
21
-3216.905273
0
LINE
8
Geometrie
62
5
6
CONTINUOUS
10
-12769.344727
20
-252.291672
11
-12469.344727
21
47.708332
0
LINE
8
Geometrie
62
5
6
CONTINUOUS
10
-16033.958008
20
-3446.194580
11
-15733.958008
21
-3146.194580
0
LINE
8
Geometrie
62
5
6
CONTINUOUS
10
-12840.054688
20
-252.291672
11
-12540.054688
21
47.708332
0
LINE
8
Geometrie
62
5
6
CONTINUOUS
10
-16033.958008
20
-3375.483887
11
-15733.958008
21
-3075.483887
0
LINE
8
Geometrie
62
5
6
CONTINUOUS
10
-12910.765625
20
-252.291672
11
-12610.765625
21
47.708332
0
LINE
8
Geometrie
62
5
6
CONTINUOUS
10
-16033.958008
20
-3304.773193
11
-15733.958008
21
-3004.773193
0
LINE
8
Geometrie
62
5
6
CONTINUOUS
10
-12981.476563
20
-252.291672
11
-12681.476563
21
47.708332
0
LINE
8
Geometrie
62
5
6
CONTINUOUS
10
-16033.958008
20
-3234.062500
11
-15733.958008
21
-2934.062500
0
LINE
8
Geometrie
62
5
6
CONTINUOUS
10
-13052.187500
20
-252.291672
11
-12752.187500
21
47.708332
0
LINE
8
Geometrie
62
5
6
CONTINUOUS
10
-16033.958008
20
-3163.351807
11
-15733.958008
21
-2863.351807
0
LINE
8
Geometrie
62
5
6
CONTINUOUS
10
-13122.897461
20
-252.291672
11
-12822.897461
21
47.708332
0
LINE
8
Geometrie
62
5
6
CONTINUOUS
10
-16033.958008
20
-3092.641113
11
-15733.958008
21
-2792.641113
0
LINE
8
Geometrie
62
5
6
CONTINUOUS
10
-13193.608398
20
-252.291672
11
-12893.608398
21
47.708332
0
LINE
8
Geometrie
62
5
6
CONTINUOUS
10
-16033.958008
20
-3021.930420
11
-15733.958008
21
-2721.930420
0
LINE
8
Geometrie
62
5
6
CONTINUOUS
10
-13264.319336
20
-252.291672
11
-12964.319336
21
47.708332
0
LINE
8
Geometrie
62
5
6
CONTINUOUS
10
-16033.958008
20
-2951.219727
11
-15733.958008
21
-2651.219727
0
LINE
8
Geometrie
62
5
6
CONTINUOUS
10
-13335.030273
20
-252.291672
11
-13035.030273
21
47.708332
0
LINE
8
Geometrie
62
5
6
CONTINUOUS
10
-16033.958008
20
-2880.509033
11
-15733.958008
21
-2580.509033
0
LINE
8
Geometrie
62
5
6
CONTINUOUS
10
-13405.740234
20
-252.291672
11
-13105.740234
21
47.708332
0
LINE
8
Geometrie
62
5
6
CONTINUOUS
10
-16033.958008
20
-2809.798340
11
-15733.958008
21
-2509.798340
0
LINE
8
Geometrie
62
5
6
CONTINUOUS
10
-13476.451172
20
-252.291672
11
-13176.451172
21
47.708332
0
LINE
8
Geometrie
62
5
6
CONTINUOUS
10
-16033.958008
20
-2739.087646
11
-15733.958008
21
-2439.087646
0
LINE
8
Geometrie
62
5
6
CONTINUOUS
10
-13547.162109
20
-252.291672
11
-13247.162109
21
47.708332
0
LINE
8
Geometrie
62
5
6
CONTINUOUS
10
-16033.958008
20
-2668.376953
11
-15733.958008
21
-2368.376953
0
LINE
8
Geometrie
62
5
6
CONTINUOUS
10
-13617.873047
20
-252.291672
11
-13317.873047
21
47.708332
0
LINE
8
Geometrie
62
5
6
CONTINUOUS
10
-16033.958008
20
-2597.666504
11
-15733.958008
21
-2297.666504
0
LINE
8
Geometrie
62
5
6
CONTINUOUS
10
-13688.583008
20
-252.291672
11
-13388.583008
21
47.708332
0
LINE
8
Geometrie
62
5
6
CONTINUOUS
10
-16033.958008
20
-2526.955811
11
-15733.958008
21
-2226.955811
0
LINE
8
Geometrie
62
5
6
CONTINUOUS
10
-13759.293945
20
-252.291672
11
-13459.293945
21
47.708332
0
LINE
8
Geometrie
62
5
6
CONTINUOUS
10
-16033.958008
20
-2456.245117
11
-15733.958008
21
-2156.245117
0
LINE
8
Geometrie
62
5
6
CONTINUOUS
10
-13830.004883
20
-252.291672
11
-13530.004883
21
47.708332
0
LINE
8
Geometrie
62
5
6
CONTINUOUS
10
-16033.958008
20
-2385.534424
11
-15733.958008
21
-2085.534424
0
LINE
8
Geometrie
62
5
6
CONTINUOUS
10
-13900.714844
20
-252.291672
11
-13600.714844
21
47.708332
0
LINE
8
Geometrie
62
5
6
CONTINUOUS
10
-16033.958008
20
-2314.823730
11
-15733.958008
21
-2014.823730
0
LINE
8
Geometrie
62
5
6
CONTINUOUS
10
-13971.425781
20
-252.291672
11
-13671.425781
21
47.708332
0
LINE
8
Geometrie
62
5
6
CONTINUOUS
10
-16033.958008
20
-2244.113037
11
-15733.958008
21
-1944.113037
0
LINE
8
Geometrie
62
5
6
CONTINUOUS
10
-14042.136719
20
-252.291672
11
-13742.136719
21
47.708332
0
LINE
8
Geometrie
62
5
6
CONTINUOUS
10
-16033.958008
20
-2173.402344
11
-15733.958008
21
-1873.402344
0
LINE
8
Geometrie
62
5
6
CONTINUOUS
10
-14112.847656
20
-252.291672
11
-13812.847656
21
47.708332
0
LINE
8
Geometrie
62
5
6
CONTINUOUS
10
-16033.958008
20
-2102.691650
11
-15733.958008
21
-1802.691650
0
LINE
8
Geometrie
62
5
6
CONTINUOUS
10
-14183.557617
20
-252.291672
11
-13883.557617
21
47.708332
0
LINE
8
Geometrie
62
5
6
CONTINUOUS
10
-16033.958008
20
-2031.980957
11
-15733.958008
21
-1731.980957
0
LINE
8
Geometrie
62
5
6
CONTINUOUS
10
-14254.268555
20
-252.291672
11
-13954.268555
21
47.708332
0
LINE
8
Geometrie
62
5
6
CONTINUOUS
10
-16033.958008
20
-1961.270264
11
-15733.958008
21
-1661.270264
0
LINE
8
Geometrie
62
5
6
CONTINUOUS
10
-14324.979492
20
-252.291672
11
-14024.979492
21
47.708332
0
LINE
8
Geometrie
62
5
6
CONTINUOUS
10
-16033.958008
20
-1890.559570
11
-15733.958008
21
-1590.559570
0
LINE
8
Geometrie
62
5
6
CONTINUOUS
10
-14395.690430
20
-252.291672
11
-14095.690430
21
47.708332
0
LINE
8
Geometrie
62
5
6
CONTINUOUS
10
-16033.958008
20
-1819.848877
11
-15733.958008
21
-1519.848877
0
LINE
8
Geometrie
62
5
6
CONTINUOUS
10
-14466.400391
20
-252.291672
11
-14166.400391
21
47.708332
0
LINE
8
Geometrie
62
5
6
CONTINUOUS
10
-16033.958008
20
-1749.138306
11
-15733.958008
21
-1449.138306
0
LINE
8
Geometrie
62
5
6
CONTINUOUS
10
-14537.111328
20
-252.291672
11
-14237.111328
21
47.708332
0
LINE
8
Geometrie
62
5
6
CONTINUOUS
10
-16033.958008
20
-1678.427612
11
-15733.958008
21
-1378.427612
0
LINE
8
Geometrie
62
5
6
CONTINUOUS
10
-14607.822266
20
-252.291672
11
-14307.822266
21
47.708332
0
LINE
8
Geometrie
62
5
6
CONTINUOUS
10
-16033.958008
20
-1607.716919
11
-15733.958008
21
-1307.716919
0
LINE
8
Geometrie
62
5
6
CONTINUOUS
10
-14678.533203
20
-252.291672
11
-14378.533203
21
47.708332
0
LINE
8
Geometrie
62
5
6
CONTINUOUS
10
-16033.958008
20
-1537.006226
11
-15733.958008
21
-1237.006226
0
LINE
8
Geometrie
62
5
6
CONTINUOUS
10
-14749.243164
20
-252.291672
11
-14449.243164
21
47.708332
0
LINE
8
Geometrie
62
5
6
CONTINUOUS
10
-16033.958008
20
-1466.295532
11
-15733.958008
21
-1166.295532
0
LINE
8
Geometrie
62
5
6
CONTINUOUS
10
-14819.954102
20
-252.291672
11
-14519.954102
21
47.708332
0
LINE
8
Geometrie
62
5
6
CONTINUOUS
10
-16033.958008
20
-1395.584839
11
-15733.958008
21
-1095.584839
0
LINE
8
Geometrie
62
5
6
CONTINUOUS
10
-14890.665039
20
-252.291672
11
-14590.665039
21
47.708332
0
LINE
8
Geometrie
62
5
6
CONTINUOUS
10
-16033.958008
20
-1324.874146
11
-15733.958008
21
-1024.874146
0
LINE
8
Geometrie
62
5
6
CONTINUOUS
10
-14961.375977
20
-252.291672
11
-14661.375977
21
47.708332
0
LINE
8
Geometrie
62
5
6
CONTINUOUS
10
-16033.958008
20
-1254.163452
11
-15733.958008
21
-954.163513
0
LINE
8
Geometrie
62
5
6
CONTINUOUS
10
-15032.085938
20
-252.291672
11
-14732.085938
21
47.708332
0
LINE
8
Geometrie
62
5
6
CONTINUOUS
10
-16033.958008
20
-1183.452881
11
-15733.958008
21
-883.452820
0
LINE
8
Geometrie
62
5
6
CONTINUOUS
10
-15102.796875
20
-252.291672
11
-14802.796875
21
47.708332
0
LINE
8
Geometrie
62
5
6
CONTINUOUS
10
-16033.958008
20
-1112.742188
11
-15733.958008
21
-812.742126
0
LINE
8
Geometrie
62
5
6
CONTINUOUS
10
-15173.507813
20
-252.291672
11
-14873.507813
21
47.708332
0
LINE
8
Geometrie
62
5
6
CONTINUOUS
10
-16033.958008
20
-1042.031494
11
-15733.958008
21
-742.031494
0
LINE
8
Geometrie
62
5
6
CONTINUOUS
10
-15244.217773
20
-252.291672
11
-14944.217773
21
47.708332
0
LINE
8
Geometrie
62
5
6
CONTINUOUS
10
-16033.958008
20
-971.320801
11
-15733.958008
21
-671.320801
0
LINE
8
Geometrie
62
5
6
CONTINUOUS
10
-15314.928711
20
-252.291672
11
-15014.928711
21
47.708332
0
LINE
8
Geometrie
62
5
6
CONTINUOUS
10
-16033.958008
20
-900.610107
11
-15733.958008
21
-600.610107
0
LINE
8
Geometrie
62
5
6
CONTINUOUS
10
-15385.639648
20
-252.291672
11
-15085.639648
21
47.708332
0
LINE
8
Geometrie
62
5
6
CONTINUOUS
10
-16033.958008
20
-829.899414
11
-15733.958008
21
-529.899414
0
LINE
8
Geometrie
62
5
6
CONTINUOUS
10
-15456.350586
20
-252.291672
11
-15156.350586
21
47.708332
0
LINE
8
Geometrie
62
5
6
CONTINUOUS
10
-16033.958008
20
-759.188782
11
-15733.958008
21
-459.188751
0
LINE
8
Geometrie
62
5
6
CONTINUOUS
10
-15527.060547
20
-252.291672
11
-15227.060547
21
47.708332
0
LINE
8
Geometrie
62
5
6
CONTINUOUS
10
-16033.958008
20
-688.478088
11
-15733.958008
21
-388.478088
0
LINE
8
Geometrie
62
5
6
CONTINUOUS
10
-15597.771484
20
-252.291672
11
-15297.771484
21
47.708332
0
LINE
8
Geometrie
62
5
6
CONTINUOUS
10
-16033.958008
20
-617.767395
11
-15733.958008
21
-317.767395
0
LINE
8
Geometrie
62
5
6
CONTINUOUS
10
-15668.482422
20
-252.291672
11
-15368.482422
21
47.708332
0
LINE
8
Geometrie
62
5
6
CONTINUOUS
10
-16033.958008
20
-547.056702
11
-15439.193359
21
47.708332
0
LINE
8
Geometrie
62
5
6
CONTINUOUS
10
-16033.958008
20
-476.346039
11
-15509.903320
21
47.708332
0
LINE
8
Geometrie
62
5
6
CONTINUOUS
10
-16033.958008
20
-405.635376
11
-15580.614258
21
47.708332
0
LINE
8
Geometrie
62
5
6
CONTINUOUS
10
-16033.958008
20
-334.924683
11
-15651.325195
21
47.708332
0
LINE
8
Geometrie
62
5
6
CONTINUOUS
10
-16033.958008
20
-264.214020
11
-15722.036133
21
47.708332
0
LINE
8
Geometrie
62
5
6
CONTINUOUS
10
-16033.958008
20
-193.503326
11
-15792.746094
21
47.708332
0
LINE
8
Geometrie
62
5
6
CONTINUOUS
10
-16033.958008
20
-122.792648
11
-15863.457031
21
47.708332
0
LINE
8
Geometrie
62
5
6
CONTINUOUS
10
-16033.958008
20
-52.081970
11
-15934.167969
21
47.708332
0
LINE
8
Geometrie
62
5
6
CONTINUOUS
10
-16033.958008
20
18.628706
11
-16004.877930
21
47.708332
0
ENDBLK
0
BLOCK
8
1
2
*LDIMENSION74
70
1
6
BYBLOCK
62
0
10
0.0
20
0.0
0
LINE
8
koty
62
5
6
CONTINUOUS
10
-9133.958008
20
-4552.291504
11
-9133.958008
21
-3754.100586
0
LINE
8
koty
62
5
6
CONTINUOUS
10
-9113.958008
20
-3796.600586
11
-9133.958008
21
-3804.100586
0
LINE
8
koty
62
5
6
CONTINUOUS
10
-9133.958008
20
-3804.100586
11
-9113.958008
21
-3811.600586
0
LINE
8
koty
62
5
6
CONTINUOUS
10
-9113.958008
20
-3811.600586
11
-9113.958008
21
-3796.600586
0
LINE
8
koty
62
5
6
CONTINUOUS
10
-9133.958008
20
-3804.100586
11
-9113.958008
21
-3804.100586
0
LINE
8
koty
62
5
6
CONTINUOUS
10
-8033.958496
20
-3352.291748
11
-8033.958496
21
-3854.100586
0
LINE
8
koty
62
5
6
CONTINUOUS
10
-8053.958496
20
-3811.600586
11
-8033.958496
21
-3804.100586
0
LINE
8
koty
62
5
6
CONTINUOUS
10
-8033.958496
20
-3804.100586
11
-8053.958496
21
-3796.600586
0
LINE
8
koty
62
5
6
CONTINUOUS
10
-8053.958496
20
-3796.600586
11
-8053.958496
21
-3811.600586
0
LINE
8
koty
62
5
6
CONTINUOUS
10
-8033.958496
20
-3804.100586
11
-9113.958008
21
-3804.100586
0
TEXT
8
koty
62
5
10
-8933.958332
20
-3764.100553
40
100.000000
1
1100.00
41
1.000000
0
ENDBLK
0
BLOCK
8
1
2
*LDIMENSION75
70
1
6
BYBLOCK
62
0
10
0.0
20
0.0
0
LINE
8
koty
62
5
6
CONTINUOUS
10
-12133.958008
20
-3452.291748
11
-12133.958008
21
-4277.414063
0
LINE
8
koty
62
5
6
CONTINUOUS
10
-12113.958008
20
-4219.914063
11
-12133.958008
21
-4227.414063
0
LINE
8
koty
62
5
6
CONTINUOUS
10
-12133.958008
20
-4227.414063
11
-12113.958008
21
-4234.914063
0
LINE
8
koty
62
5
6
CONTINUOUS
10
-12113.958008
20
-4234.914063
11
-12113.958008
21
-4219.914063
0
LINE
8
koty
62
5
6
CONTINUOUS
10
-12133.958008
20
-4227.414063
11
-12113.958008
21
-4227.414063
0
LINE
8
koty
62
5
6
CONTINUOUS
10
-10433.958008
20
-4452.291504
11
-10433.958008
21
-4177.414063
0
LINE
8
koty
62
5
6
CONTINUOUS
10
-10453.958008
20
-4234.914063
11
-10433.958008
21
-4227.414063
0
LINE
8
koty
62
5
6
CONTINUOUS
10
-10433.958008
20
-4227.414063
11
-10453.958008
21
-4219.914063
0
LINE
8
koty
62
5
6
CONTINUOUS
10
-10453.958008
20
-4219.914063
11
-10453.958008
21
-4234.914063
0
LINE
8
koty
62
5
6
CONTINUOUS
10
-10433.958008
20
-4227.414063
11
-12113.958008
21
-4227.414063
0
TEXT
8
koty
62
5
10
-11633.958332
20
-4187.413862
40
100.000000
1
1700.00
41
1.000000
0
ENDBLK
0
BLOCK
8
1
2
*LDIMENSION76
70
1
6
BYBLOCK
62
0
10
0.0
20
0.0
0
LINE
8
koty
62
5
6
CONTINUOUS
10
-12133.958008
20
-3452.291748
11
-12133.958008
21
-5340.490234
0
LINE
8
koty
62
5
6
CONTINUOUS
10
-12113.958008
20
-5282.990234
11
-12133.958008
21
-5290.490234
0
LINE
8
koty
62
5
6
CONTINUOUS
10
-12133.958008
20
-5290.490234
11
-12113.958008
21
-5297.990234
0
LINE
8
koty
62
5
6
CONTINUOUS
10
-12113.958008
20
-5297.990234
11
-12113.958008
21
-5282.990234
0
LINE
8
koty
62
5
6
CONTINUOUS
10
-12133.958008
20
-5290.490234
11
-12113.958008
21
-5290.490234
0
LINE
8
koty
62
5
6
CONTINUOUS
10
-11533.958008
20
-5952.291504
11
-11533.958008
21
-5240.490234
0
LINE
8
koty
62
5
6
CONTINUOUS
10
-11553.958008
20
-5297.990234
11
-11533.958008
21
-5290.490234
0
LINE
8
koty
62
5
6
CONTINUOUS
10
-11533.958008
20
-5290.490234
11
-11553.958008
21
-5282.990234
0
LINE
8
koty
62
5
6
CONTINUOUS
10
-11553.958008
20
-5282.990234
11
-11553.958008
21
-5297.990234
0
LINE
8
koty
62
5
6
CONTINUOUS
10
-11533.958008
20
-5290.490234
11
-12113.958008
21
-5290.490234
0
TEXT
8
koty
62
5
10
-11983.958332
20
-5250.490064
40
100.000000
1
600
41
1.000000
0
ENDBLK
0
ENDSEC
0
SECTION
2
ENTITIES
0
LINE
8
Geometrie
62
5
6
DOT
10
-3433.958333
20
-3252.291669
11
-333.958333
21
-3252.291669
0
LINE
8
Geometrie
62
5
6
DOT
10
-3433.958332
20
-4652.291667
11
-333.958332
21
-4652.291667
0
LINE
8
Geometrie
62
5
6
DOT
10
-5033.958332
20
-4652.291667
11
-5033.958332
21
-7652.291667
0
LINE
8
Geometrie
62
5
6
DOT
10
-9133.958332
20
-4652.291671
11
-9133.958332
21
-7652.291671
0
INSERT
8
koty
62
5
2
*LDIMENSION39
10
0.0
20
0.0
0
INSERT
8
koty
62
5
2
*LDIMENSION40
10
0.0
20
0.0
0
INSERT
8
koty
62
5
2
*LDIMENSION41
10
0.0
20
0.0
0
INSERT
8
koty
62
5
2
*LDIMENSION43
10
0.0
20
0.0
0
INSERT
8
koty
62
5
2
*LDIMENSION44
10
0.0
20
0.0
0
INSERT
8
koty
62
5
2
*LDIMENSION45
10
0.0
20
0.0
0
INSERT
8
koty
62
5
2
*LDIMENSION46
10
0.0
20
0.0
0
INSERT
8
koty
62
5
2
*LDIMENSION47
10
0.0
20
0.0
0
INSERT
8
koty
62
5
2
*LDIMENSION54
10
0.0
20
0.0
0
INSERT
8
koty
62
5
2
*LDIMENSION55
10
0.0
20
0.0
0
INSERT
8
koty
62
5
2
*LDIMENSION56
10
0.0
20
0.0
0
INSERT
8
koty
62
5
2
*LDIMENSION57
10
0.0
20
0.0
0
INSERT
8
koty
62
5
2
*LDIMENSION58
10
0.0
20
0.0
0
INSERT
8
koty
62
5
2
*LDIMENSION60
10
0.0
20
0.0
0
INSERT
8
koty
62
5
2
*LDIMENSION61
10
0.0
20
0.0
0
INSERT
8
koty
62
5
2
*LDIMENSION62
10
0.0
20
0.0
0
INSERT
8
koty
62
5
2
*LDIMENSION63
10
0.0
20
0.0
0
INSERT
8
koty
62
5
2
*LDIMENSION64
10
0.0
20
0.0
0
TEXT
8
popis
62
5
10
-14090.808233
20
-1296.508721
40
250.000000
1
kuchyna
41
1.000000
0
TEXT
8
popis
62
5
10
-14186.652734
20
-6261.253633
40
250.000000
1
obyvacka
41
1.000000
0
TEXT
8
popis
62
5
10
-11951.122729
20
-1532.348944
40
150.000000
1
komora
41
1.000000
0
TEXT
8
popis
62
5
10
-11673.794906
20
-3185.222699
40
150.000000
1
technicka 
41
1.000000
0
TEXT
8
popis
62
5
10
-11673.794906
20
-3335.222699
40
150.000000
1
miestnost
41
1.000000
0
TEXT
8
popis
62
5
10
-10032.014182
20
-1188.462458
40
250.000000
1
kupelna
41
1.000000
0
TEXT
8
popis
62
5
10
-7599.106503
20
-2818.333523
40
250.000000
1
WC
41
1.000000
0
TEXT
8
popis
62
5
10
-6317.818759
20
-2274.478153
40
250.000000
1
satnik
41
1.000000
0
TEXT
8
popis
62
5
10
-3615.536769
20
-2101.425571
40
250.000000
1
izba
41
1.000000
0
TEXT
8
popis
62
5
10
-3471.770027
20
-5711.568570
40
250.000000
1
izba
41
1.000000
0
TEXT
8
popis
62
5
10
-7641.005534
20
-5791.438990
40
250.000000
1
izba
41
1.000000
0
TEXT
8
popis
62
5
38
90.000000
10
-9797.505877
20
-6685.987273
40
250.000000
1
vstupna 
41
1.000000
0
TEXT
8
popis
62
5
38
90.000000
10
-9797.505877
20
-6885.987273
40
250.000000
1
chodba
41
1.000000
0
TEXT
8
popis
62
5
10
-10933.218616
20
-6643.167768
40
250.000000
1
WC
41
1.000000
0
LINE
8
popis
62
5
6
CONTINUOUS
10
-11318.239575
20
-5748.628561
11
-10631.353937
21
-5748.628561
0
LINE
8
popis
62
5
6
CONTINUOUS
10
-10631.353937
20
-5748.628561
11
-10631.353937
21
-4838.105660
0
LINE
8
popis
62
5
6
CONTINUOUS
10
-10631.353937
20
-4838.105660
11
-11318.239575
21
-4838.105660
0
LINE
8
popis
62
5
6
CONTINUOUS
10
-11318.239575
20
-4838.105660
11
-11318.239575
21
-5748.628561
0
TEXT
8
popis
62
5
10
-11183.479405
20
-5450.436873
40
150.000000
1
krb
41
1.000000
0
TEXT
8
popis
62
5
10
-2823.221677
20
-3660.496259
40
250.000000
1
satnik
41
1.000000
0
TEXT
8
popis
62
5
10
-2842.390578
20
-4446.421243
40
250.000000
1
satnik
41
1.000000
0
TEXT
8
popis
62
5
10
-4642.987563
20
-6729.437788
40
250.000000
1
satnik
41
1.000000
0
TEXT
8
popis
62
5
10
-8706.794743
20
-6748.606690
40
250.000000
1
satnik
41
1.000000
0
LINE
8
Geometrie
62
5
6
DOT
10
-6833.958332
20
-1702.291665
11
-6833.958332
21
-252.291665
0
INSERT
8
koty
62
5
2
*LDIMENSION68
10
0.0
20
0.0
0
INSERT
8
koty
62
5
2
*LDIMENSION69
10
0.0
20
0.0
0
INSERT
8
koty
62
5
2
*LDIMENSION70
10
0.0
20
0.0
0
INSERT
8
koty
62
5
2
*LDIMENSION71
10
0.0
20
0.0
0
INSERT
8
koty
62
5
2
*LDIMENSION73
10
0.0
20
0.0
0
LINE
8
Geometrie
62
5
6
CONTINUOUS
10
-16033.958335
20
47.708332
11
-16033.958335
21
-7952.291668
0
LINE
8
Geometrie
62
5
6
CONTINUOUS
10
-33.958335
20
-7952.291668
11
-16033.958335
21
-7952.291668
0
LINE
8
Geometrie
62
5
6
CONTINUOUS
10
-33.958335
20
47.708332
11
-33.958335
21
-7952.291668
0
LINE
8
Geometrie
62
5
6
CONTINUOUS
10
-33.958335
20
47.708332
11
-16033.958335
21
47.708332
0
LINE
8
Geometrie
62
5
6
CONTINUOUS
10
-15733.958338
20
-7652.291671
11
-15733.958338
21
-252.291665
0
LINE
8
Geometrie
62
5
6
CONTINUOUS
10
-15733.958338
20
-252.291665
11
-12133.958332
21
-252.291665
0
LINE
8
Geometrie
62
5
6
CONTINUOUS
10
-12133.958332
20
-252.291665
11
-12133.958332
21
-3352.291668
0
LINE
8
Geometrie
62
5
6
CONTINUOUS
10
-4433.958332
20
-3352.291668
11
-12133.958332
21
-3352.291668
0
LINE
8
Geometrie
62
5
6
CONTINUOUS
10
-4333.958332
20
-3352.291668
11
-4433.958332
21
-3352.291668
0
LINE
8
Geometrie
62
5
6
CONTINUOUS
10
-4333.958332
20
-3352.291668
11
-3533.958332
21
-3352.291668
0
LINE
8
Geometrie
62
5
6
CONTINUOUS
10
-3533.958332
20
-3352.291668
11
-3533.958332
21
-4552.291668
0
LINE
8
Geometrie
62
5
6
CONTINUOUS
10
-4333.958332
20
-4552.291668
11
-3533.958332
21
-4552.291668
0
LINE
8
Geometrie
62
5
6
CONTINUOUS
10
-4333.958332
20
-4552.291668
11
-4433.958332
21
-4552.291668
0
LINE
8
Geometrie
62
5
6
CONTINUOUS
10
-4433.958332
20
-4552.291668
11
-10433.958332
21
-4552.291668
0
LINE
8
Geometrie
62
5
6
CONTINUOUS
10
-10433.958332
20
-4552.291668
11
-10433.958332
21
-6052.291671
0
LINE
8
Geometrie
62
5
6
CONTINUOUS
10
-10433.958332
20
-6052.291671
11
-11533.958332
21
-6052.291671
0
LINE
8
Geometrie
62
5
6
CONTINUOUS
10
-11533.958332
20
-6052.291671
11
-11533.958332
21
-7652.291671
0
LINE
8
Geometrie
62
5
6
CONTINUOUS
10
-11533.958332
20
-7652.291671
11
-15733.958338
21
-7652.291671
0
LINE
8
Geometrie
62
5
6
CONTINUOUS
10
-11433.958332
20
-6152.291671
11
-11433.958332
21
-7652.291671
0
LINE
8
Geometrie
62
5
6
CONTINUOUS
10
-10433.958332
20
-6152.291671
11
-11433.958332
21
-6152.291671
0
LINE
8
Geometrie
62
5
6
CONTINUOUS
10
-10433.958332
20
-6152.291671
11
-10433.958332
21
-7652.291671
0
LINE
8
Geometrie
62
5
6
CONTINUOUS
10
-10433.958332
20
-7652.291671
11
-11433.958332
21
-7652.291671
0
LINE
8
Geometrie
62
5
6
CONTINUOUS
10
-10333.958332
20
-4652.291667
11
-10333.958332
21
-7652.291671
0
LINE
8
Geometrie
62
5
6
CONTINUOUS
10
-10333.958332
20
-4652.291667
11
-8533.958332
21
-4652.291667
0
LINE
8
Geometrie
62
5
6
CONTINUOUS
10
-8533.958332
20
-4652.291667
11
-8533.958332
21
-7652.291671
0
LINE
8
Geometrie
62
5
6
CONTINUOUS
10
-8533.958332
20
-7652.291671
11
-10333.958332
21
-7652.291671
0
LINE
8
Geometrie
62
5
6
CONTINUOUS
10
-8433.958332
20
-4652.291667
11
-8433.958332
21
-7652.291671
0
LINE
8
Geometrie
62
5
6
CONTINUOUS
10
-4433.958332
20
-7652.291671
11
-8433.958332
21
-7652.291671
0
LINE
8
Geometrie
62
5
6
CONTINUOUS
10
-4433.958332
20
-4652.291667
11
-4433.958332
21
-7652.291671
0
LINE
8
Geometrie
62
5
6
CONTINUOUS
10
-8433.958332
20
-4652.291667
11
-4433.958332
21
-4652.291667
0
LINE
8
Geometrie
62
5
6
CONTINUOUS
10
-4333.958332
20
-4652.291667
11
-4333.958332
21
-7652.291671
0
LINE
8
Geometrie
62
5
6
CONTINUOUS
10
-333.958332
20
-7652.291671
11
-4333.958332
21
-7652.291671
0
LINE
8
Geometrie
62
5
6
CONTINUOUS
10
-333.958332
20
-4002.291668
11
-333.958332
21
-7652.291671
0
LINE
8
Geometrie
62
5
6
CONTINUOUS
10
-333.958332
20
-4002.291668
11
-3433.958333
21
-4002.291668
0
LINE
8
Geometrie
62
5
6
CONTINUOUS
10
-3433.958333
20
-4002.291668
11
-3433.958333
21
-4652.291667
0
LINE
8
Geometrie
62
5
6
CONTINUOUS
10
-4333.958332
20
-4652.291667
11
-3433.958333
21
-4652.291667
0
LINE
8
Geometrie
62
5
6
CONTINUOUS
10
-4333.958332
20
-252.291665
11
-4333.958332
21
-3252.291669
0
LINE
8
Geometrie
62
5
6
CONTINUOUS
10
-4333.958332
20
-252.291665
11
-333.958332
21
-252.291665
0
LINE
8
Geometrie
62
5
6
CONTINUOUS
10
-333.958332
20
-252.291665
11
-333.958332
21
-3902.291668
0
LINE
8
Geometrie
62
5
6
CONTINUOUS
10
-333.958332
20
-3902.291668
11
-3433.958333
21
-3902.291668
0
LINE
8
Geometrie
62
5
6
CONTINUOUS
10
-3433.958333
20
-3252.291669
11
-3433.958333
21
-3902.291668
0
LINE
8
Geometrie
62
5
6
CONTINUOUS
10
-3433.958333
20
-3252.291669
11
-4333.958332
21
-3252.291669
0
LINE
8
Geometrie
62
5
6
CONTINUOUS
10
-4433.958332
20
-252.291665
11
-4433.958332
21
-3252.291669
0
LINE
8
Geometrie
62
5
6
CONTINUOUS
10
-7433.958332
20
-252.291665
11
-4433.958332
21
-252.291665
0
LINE
8
Geometrie
62
5
6
CONTINUOUS
10
-7433.958332
20
-252.291665
11
-7433.958332
21
-1702.291667
0
LINE
8
Geometrie
62
5
6
CONTINUOUS
10
-7433.958332
20
-1702.291667
11
-6833.958332
21
-1702.291667
0
LINE
8
Geometrie
62
5
6
CONTINUOUS
10
-6833.958332
20
-1702.291667
11
-6833.958332
21
-3252.291669
0
LINE
8
Geometrie
62
5
6
CONTINUOUS
10
-4433.958332
20
-3252.291669
11
-6833.958332
21
-3252.291669
0
LINE
8
Geometrie
62
5
6
CONTINUOUS
10
-7933.958332
20
-1802.291667
11
-7933.958332
21
-3252.291669
0
LINE
8
Geometrie
62
5
6
CONTINUOUS
10
-7533.958332
20
-3252.291669
11
-7933.958332
21
-3252.291669
0
LINE
8
Geometrie
62
5
6
CONTINUOUS
10
-6933.958332
20
-3252.291669
11
-7533.958332
21
-3252.291669
0
LINE
8
Geometrie
62
5
6
CONTINUOUS
10
-6933.958332
20
-1802.291667
11
-6933.958332
21
-3252.291669
0
LINE
8
Geometrie
62
5
6
CONTINUOUS
10
-7933.958332
20
-1802.291667
11
-6933.958332
21
-1802.291667
0
LINE
8
Geometrie
62
5
6
CONTINUOUS
10
-8033.958332
20
-1702.291667
11
-8033.958332
21
-3252.291669
0
LINE
8
Geometrie
62
5
6
CONTINUOUS
10
-8033.958332
20
-3252.291669
11
-9433.958332
21
-3252.291669
0
LINE
8
Geometrie
62
5
6
CONTINUOUS
10
-9533.958332
20
-3252.291669
11
-9433.958332
21
-3252.291669
0
LINE
8
Geometrie
62
5
6
CONTINUOUS
10
-9533.958332
20
-3252.291669
11
-10533.958332
21
-3252.291669
0
LINE
8
Geometrie
62
5
6
CONTINUOUS
10
-10533.958332
20
-1802.291667
11
-10533.958332
21
-3252.291669
0
LINE
8
Geometrie
62
5
6
CONTINUOUS
10
-10533.958332
20
-1702.291667
11
-10533.958332
21
-1802.291667
0
LINE
8
Geometrie
62
5
6
CONTINUOUS
10
-10533.958332
20
-252.291665
11
-10533.958332
21
-1702.291667
0
LINE
8
Geometrie
62
5
6
CONTINUOUS
10
-10533.958332
20
-252.291665
11
-7533.958332
21
-252.291665
0
LINE
8
Geometrie
62
5
6
CONTINUOUS
10
-7533.958332
20
-252.291665
11
-7533.958332
21
-1702.291667
0
LINE
8
Geometrie
62
5
6
CONTINUOUS
10
-8033.958332
20
-1702.291667
11
-7533.958332
21
-1702.291667
0
LINE
8
Geometrie
62
5
6
CONTINUOUS
10
-10633.958332
20
-1802.291667
11
-12033.958332
21
-1802.291667
0
LINE
8
Geometrie
62
5
6
CONTINUOUS
10
-12033.958332
20
-1802.291667
11
-12033.958332
21
-3252.291669
0
LINE
8
Geometrie
62
5
6
CONTINUOUS
10
-10633.958332
20
-3252.291669
11
-12033.958332
21
-3252.291669
0
LINE
8
Geometrie
62
5
6
CONTINUOUS
10
-10633.958332
20
-1802.291667
11
-10633.958332
21
-3252.291669
0
LINE
8
Geometrie
62
5
6
CONTINUOUS
10
-12033.958332
20
-252.291665
11
-10633.958332
21
-252.291665
0
LINE
8
Geometrie
62
5
6
CONTINUOUS
10
-12033.958332
20
-252.291665
11
-12033.958332
21
-1702.291667
0
LINE
8
Geometrie
62
5
6
CONTINUOUS
10
-10633.958332
20
-1702.291667
11
-12033.958332
21
-1702.291667
0
LINE
8
Geometrie
62
5
6
CONTINUOUS
10
-10633.958332
20
-252.291665
11
-10633.958332
21
-1702.291667
0
INSERT
8
Geometrie
62
5
2
*XHATCH3
10
0.0
20
0.0
0
INSERT
8
koty
62
5
2
*LDIMENSION74
10
0.0
20
0.0
0
INSERT
8
koty
62
5
2
*LDIMENSION75
10
0.0
20
0.0
0
INSERT
8
koty
62
5
2
*LDIMENSION76
10
0.0
20
0.0
0
ENDSEC
0
EOF
